PrimaNota.ru - самый крупный в мире бесплатный архив песенных текстов, аккордов, табулатур и нот


A Great Big Pile Of Leaves - Snack Attack - таба, видео

Регистрация Запомнить меня
Войти через:  Facebook Google Twitter Vk Yandex Mail.ru

A Great Big Pile Of Leaves - Snack Attack - таба, видео

Печатать
Просмотров: 95
the whole song except the outro

Standard Tuning

e|---------------------------------------------------------------------------|
B|--12/9--7/9--12/9--7/9--12/9--7--12/9--7/9--12/9--7/9--12/14--12-----------|
G|---------------------------------------------------------------------------|
D|---------------------------------------------------------------------------|
A|---------------------------------------------------------------------------|
E|---------------------------------------------------------------------------|

chords in order

verse
e|--------------------------------------|
B|--------------------------------------|
G|--2---4---4---------------------------|
D|--2---4---6---------------------------|
A|----------0---------------------------|
E|--2---4-------------------------------|

chorus
e|----------------------------------------------|
B|----------------------------------------------|
G|---0h1-0h1----4-------------------------------|
D|---2---2------6-------------------------------|
A|---0---0------0-------------------------------|
E|----------------------------------------------|


bridge uses the same chords as the verse but pick at the open b and e strings to add to it

************************************

| /   slide up
| \   slide down
| h   hammer-on
| p   pull-off
| ~   vibrato
| +   harmonic
| x   Mute note
| b   Bend
| pb  Pre-bend
| br  Bend release
| pbr Pre-bend release
| brb Bend release bend

************************************
Добавлено: 06.09.2014
Другие материалы по этой песне:
  • Аккорды и текст

Страница создана 06.09.2014
http://primanota.ru/a-great-big-pile-of-leaves/snack-attack-chords.htm
Привет, Гость.
Предлагаем пройти революционный курс по гитаре.
Подарок от PrimaNota.Ru, забирай!