PrimaNota.ru - самый крупный в мире бесплатный архив песенных текстов, аккордов, табулатур и нот


A Great Big Pile Of Leaves - Race Car Driving - таба, видео

Регистрация Запомнить меня
Войти через:  Facebook Google Twitter Vk Yandex Mail.ru

A Great Big Pile Of Leaves - Race Car Driving - таба, видео

Печатать
Просмотров: 131
Guitar 1
(0:00)
e|----------------|------------------|
B|------------0~--|------------------|
G|------0h2p0-----|------2b2.5r2-0~--|
D|--0h2-----------|--0h2-------------|
A|3---------------|3-----------------| 
E|----------------|------------------|x2

e|----------------|------------------|
B|------------3-0~|------------------|
G|------0h2p0-----|------2b2.5r2-0~--|
D|--0h2-----------|--0h2-------------|
A|3---------------|3-----------------|
E|----------------|------------------|x2


(1:20)
e|--------------------|--------------------|
B|--------------------|--------------------|
G|9--9--9--9--9-------|--------------------|
D|10-10-10-10-10--9-9-|9------9h10p9-------|
A|10-10-10-10-10------|---10----------10/12|
E|8--8--8--8--8-------|--------------------|

e|--------------------|--------------------|
B|--------------------|--------------------|
G|11-11-11-11-11------|--------------------|
D|12-12-12-12-12--7-7-|7-------7h9p7-------|
A|12-12-12-12-12------|----9-----------9/12|
E|10-10-10-10-10------|--------------------|

e|--------------------|--------------------|
B|--------------------|--------------------|
G|9--9--9--9--9-------|--------------------|
D|10-10-10-10-10--9-9-|9------9h10p9-------|
A|10-10-10-10-10------|---10----------10/12|
E|8--8--8--8--8-------|--------------------|

e|--------------------|--------------------|
B|--------------------|--------------------|
G|11-11-11-11-11--9-9-|9-------------------|
D|12-12-12-12-12------|----9---7h9p7-------|
A|12-12-12-12-12------|----------------9/12|
E|10-10-10-10-10------|--------------------|

e|--------------------|--------------------|
B|--------------------|--------------------|
G|9--9--9--9--9-------|--------------------|
D|10-10-10-10-10------|12--10--9h-10--9----|
A|10-10-10-10-10------|10--10--10-10--10/12|
E|8--8--8--8--8-------|--------------------|

e|--------------------|--------------------|
B|--------------------|--------------------|
G|11-11-11-11-11------|--------------------|
D|12-12-12-12-12--7-7-|7-------7h9p7-------|
A|12-12-12-12-12------|----9-----------9/12|
E|10-10-10-10-10------|--------------------|

e|--------------------|--------------------|
B|--------------------|--------------------|
G|9--9--9--9--9-------|--------------------|
D|10-10-10-10-10--9-9-|9------9h10p9-------|
A|10-10-10-10-10------|---10----------10/12|
E|8--8--8--8--8-------|--------------------|

e|--------------------|--------------------|
B|--------------------|--------------------|
G|11-11-11-11-11--9-9-|9-------------------|
D|12-12-12-12-12------|----9---7h9p7-------|
A|12-12-12-12-12------|----------------9/12|
E|10-10-10-10-10------|--------------------|


(1:52) - Tempo Change: Ritenuto.
e|--------------------|--------------------|
B|--------------------|--------------------|
G|9--9--9--9--9-------|--------------------|
D|10-10-10-10-10------|12--10--9h-10--9----|
A|10-10-10-10-10------|10--10--10-10--10/12|
E|8--8--8--8--8-------|--------------------|

e|--------------------|--------------------|
B|--------------------|--------------------|
G|11-11-11-11-11------|--------------------|
D|12-12-12-12-12--7-7-|7-------7h9p7-------|
A|12-12-12-12-12------|----9-----------9/12|
E|10-10-10-10-10------|--------------------|

e|--------------------|--------------------|
B|--------------------|--------------------|
G|9--9--9--9--9-------|--------------------|
D|10-10-10-10-10--9-9-|9------9h10p9-------|
A|10-10-10-10-10------|---10----------10/12|
E|8--8--8--8--8-------|--------------------|

e|--------------------|--------------------|
B|--------------------|--------------------|
G|11-11-11-11-11--9-9-|9-------------------|
D|12-12-12-12-12------|----9---7h9p7-------|
A|12-12-12-12-12------|----------------9/12|
E|10-10-10-10-10------|--------------------|

e|-----------|
B|-----------|
G|9--9--9--9-|
D|10-10-10-10|
A|10-10-10-10|
E|8--8--8--8-| This chord leads into the next song!




Guitar 2
(0:00) x2
e|--------------------|--------------------|
B|10--8-8---------8-8-|--------------------|
G|----------9-9-------|7-7\5~--------------|
D|--------------------|--------------------|
A|--------------------|--------------------|
E|--------------------|--------------------|

e|--------------------|--------------------|
B|10--8-8---------8///|12\8~---------------|
G|----------9-9-------|--------------------|
D|--------------------|--------------------|
A|--------------------|--------------------|
E|--------------------|--------------------|


(0:48) x2
e|10-10-----------------|--------------------|
B|--------12-12---10-10-|8-8---10-10---8-8/5~|
G|----------------------|--------------------|
D|----------------------|--------------------|
A|----------------------|--------------------|
E|----------------------|--------------------|

e|10-10-----------------|--------------------|
B|--------12-12---10-10-|8-8---10-10---8-8~--|
G|----------------------|--------------------|
D|----------------------|--------------------|
A|----------------------|--------------------|
E|----------------------|--------------------|


(1:20)
e|-----------------7-7|7------7h8p7--------|
B|----8---8b.5r8------|----8-----------8/10|
G|7-9---9-------------|--------------------|
D|--------------------|--------------------|
A|--------------------|--------------------|
E|--------------------|--------------------|

e|--------------------|--------------------|
B|7--------------10-10|10-7-10//12-10--7/10|
G|-----7-7------------|--------------------|
D|--------------------|--------------------|
A|--------------------|--------------------|
E|--------------------|--------------------|

e|-----------------7-7|7------7h8p7--------|
B|8-------------------|----8-----------8/10|
G|-----9-9------------|--------------------|
D|--------------------|--------------------|
A|--------------------|--------------------|
E|--------------------|--------------------|

e|---------------12-12|12------------------|
B|7-------------------|---12-10//12-10-7/10|
G|-----7-7------------|--------------------|
D|--------------------|--------------------|
A|--------------------|--------------------|
E|--------------------|--------------------|

e|--------------------|10---8----7h8---7---|
B|8-------------------|8----8----8-8---8/10|
G|-----9-9------------|--------------------|
D|--------------------|--------------------|
A|--------------------|--------------------|
E|--------------------|--------------------|

e|--------------------|--------------------|
B|7--------------10-10|10-7-10//12-10--7/10|
G|-----7-7------------|--------------------|
D|--------------------|--------------------|
A|--------------------|--------------------|
E|--------------------|--------------------|

e|-----------------7-7|7------7h8p7--------|
B|8-------------------|----8-----------8/10|
G|-----9-9------------|--------------------|
D|--------------------|--------------------|
A|--------------------|--------------------|
E|--------------------|--------------------|

e|---------------12-12|12------------------|
B|7-------------------|---12-10//12-10-7/10|
G|-----7-7------------|--------------------|
D|--------------------|--------------------|
A|--------------------|--------------------|
E|--------------------|--------------------|

e|---------|
B|8--------|
G|-----9-9-|
D|---------|
A|---------|
E|---------| These notes lead into the next song!

Добавлено: 12.11.2013
Другие материалы по этой песне:
  • Аккорды и текст

Страница создана 12.11.2013
http://primanota.ru/a-great-big-pile-of-leaves/race-car-driving-chords.htm
Привет, Гость.
Предлагаем пройти революционный курс по гитаре.
Подарок от PrimaNota.Ru, забирай!