PrimaNota.ru - самый крупный в мире бесплатный архив песенных текстов, аккордов, табулатур и нот


A Great Big Pile Of Leaves - Mystery Of The Brain - таба, видео

Регистрация Запомнить меня
Войти через:  Facebook Google Twitter Vk Yandex Mail.ru

A Great Big Pile Of Leaves - Mystery Of The Brain - таба, видео

Печатать
Просмотров: 142
Legend:
PM - Palm Mute.
* - Mute Strings.
o - Open Strings.
<7> - Denotes Harmonics.
~ - Let Notes Ring.


Guitar 1 (Pete Weiland)

(0:00)
This is the way Pete actually plays it:
E|------------------------------------------------|
B|--------------------------------------------<7>-|
G|----0-----0-----0-----0-----0-----0-----0---<7>-|
D|--5-----12----2-----9-----0-----0-----4---0-----|
A|7-----14----3-----10----2-----9-----5-----------|
E|------------------------------------------------|x1

But if you want an easier alternative that moves less around the fretboard:
E|------------------------------------------------|
B|--------------------------------------------<7>-|
G|----0-----0-----0-----0-----0-----0-----0---<7>-|
D|--------12----------9-----0-----0---------0-----|
A|--10--14------7---10----------9-------9---------|
E|12----------8-----------7-----------10----------|x1



(0:05)
E|--------------------------------------------------|
B|8-8---15-15---5-5---12-12---3-3---10-10---7-7-7-7-|
G|0-0---0--0----0-0---0--0----0-0---0--0----0-0-0-0-|
D|5-5---12-12---2-2---9--9----0-0---0--0----4-4-4h5-|
A|7-7---14-14---3-3---10-10---2-2---9--9----5-5-5-5-|
E|--------------------------------------------------|x4



(0:25)
E|------------------------------------------------|
B|----------------------------------------------0-|
G|0-0-0-0-0---0-0-0-0-0---0-0-0-0-0-------0-------|
D|5-5-5-4-4---0-0-0-2-2---5-5-5-4-4-----0-----2---|
A|7-7-7-5-5---2-2-2-3-3---7-7-7-5-5---2-----3-----|
E|------------------------------------------------|x4
PM* * * * *   * * * * *   * * * * *   * * o * * o

E|------------------------------------------------|
B|---------------0~-------------------------------|
G|----0-------0--0~-------------------------------|
D|--5------12----2~-------------------------------|
A|7-----14-------3~-------------------------------|
E|------------------------------------------------|x1



(0:49) - Same as (0:05).



(1:08) - No first guitar.



(1:19) - Same as (0:00)x2.



(1:29) - Same as (0:05).



(1:49)
E|------------------------------------------------|
B|0---0-0-0-0-0---0-0-0-0-0---0-0-0-0-3---3---3---|
G|0---0-0-0-0-0---0-0-0-0-0---0-0-0-0-0---0---0---|
D|2---2-2-2-2-2---2-2-2-2-2---2-2-2-2-4---4---4---|
A|3---3-3-3-3-3---3-3-3-3-3---3-3-3-3-5---5---5---|
E|------------------------------------------------|x4



(2:09)
E|--------------------------------------------------|
B|8-8---15-15---5-5---12-12---3-3---10-10---7--7-<7>|
G|0-0---0--0----0-0---0--0----0-0---0--0----0--0-<7>|
D|5-5---12-12---2-2---9--9----0-0---0--0----4--4----|
A|7-7---14-14---3-3---10-10---2-2---9--9----5--5----|
E|--------------------------------------------------|x1

E|--------------------------------------------------|
B|8-8---15-15---5-5---12-12---3-3---10-10---7-7-7-7-|
G|0-0---0--0----0-0---0--0----0-0---0--0----0-0-0-0-|
D|5-5---12-12---2-2---9--9----0-0---0--0----4-4-4h5-|
A|7-7---14-14---3-3---10-10---2-2---9--9----5-5-5-5-|
E|--------------------------------------------------|x3



(2:29)
E|--------------------------------------------------|
B|8-8---15-15---5-5---12-12---3-3---10-10---7-7-7-7-|
G|0-0---0--0----0-0---0--0----0-0---0--0----0-0-0-0-|
D|5-5---12-12---2-2---9--9----0-0---0--0----4-4-4-4-|
A|7-7---14-14---3-3---10-10---2-2---9--9----5-5-5-5-|
E|--------------------------------------------------|x2



Guitar 2 (Matt Fazzi as of a few days ago!)

(0:04)
E|10p7------|------------------------------------------10p7------|
B|----10p8--|8-8---8-8\--3/8---8-8---8-8---8-8\--3/8-------10p8--|
G|--------9-|--------------------------------------------------9-|
D|----------|----------------------------------------------------|
A|----------|----------------------------------------------------|
E|----------|----------------------------------------------------|x1

E|10-10---10-10\--3/10---10-10---10-10\---3/10---10p7------|
B|---------------------------------------------------10p8--|
G|-------------------------------------------------------9-|
D|---------------------------------------------------------|
A|---------------------------------------------------------|
E|---------------------------------------------------------|x1

E|------------------------------------------10p7------|
B|8-8---8-8\--3/8---8-8---8-8---8-8\--3/8-------10p8--|
G|--------------------------------------------------9-|
D|----------------------------------------------------|
A|----------------------------------------------------|
E|----------------------------------------------------|x1

E|10-10---10-10\--3/10---10-10---10-10---10-10---10--8--7--|
B|---------------------------------------------------------|
G|---------------------------------------------------------|
D|---------------------------------------------------------|
A|---------------------------------------------------------|
E|---------------------------------------------------------|x1

(0:25)
E|---------------------------------------------------8p7~--|
B|10--8~-------------------------------------------8-------|
G|---------------------------------------------7h9---------|
D|---------------------------------------------------------|
A|---------------------------------------------------------|
E|---------------------------------------------------------|x1

(With Delay at dotted eighth notes)
E|10-10-10-10-10-10-10-10-10-10-10-10-10-10-10-7-7-8-8-7-7-|
B|---------------------------------------------------------|
G|---------------------------------------------------------|
D|---------------------------------------------------------|
A|---------------------------------------------------------|
E|---------------------------------------------------------|x2

(This part is really faint and reverb-y)
E|---------------------------------------------------------|
B|8~-----------//////20~-----------------------------------|
G|---------------------------------------------------------|
D|---------------------------------------------------------|
A|---------------------------------------------------------|
E|---------------------------------------------------------|x1



(0:49) - No second guitar.



(1:08)
(With Delay at dotted eighth notes)
E|------------------------------------------------------|
B|8-8-8-8-8-8-10-10-10-10-10-10-8-8-8-8-8-8-7-7-7-7-7-7-|
G|------------------------------------------------------|
D|------------------------------------------------------|
A|------------------------------------------------------|
E|------------------------------------------------------|x2

E|-----8-7-----------8-7-----------8-7------10---10-10------|
B|8-10-----8-10-8-10-----8-10-8-10-----8-10----8-------8-10-|
G|----------------------------------------------------------|
D|----------------------------------------------------------|
A|----------------------------------------------------------|
E|----------------------------------------------------------|x2



(1:29) - No second guitar.



(1:49)
E|------10----10----------10----10----------10----10----------15----15----|
B|10h12----12----12-10h12----12----12-10h12----12----12-10h12----12----12-|
G|------------------------------------------------------------------------|
D|------------------------------------------------------------------------|
A|------------------------------------------------------------------------|
E|------------------------------------------------------------------------|x4



(2:09) - No second guitar.



(2:29)
E|10p7------|------------------------------------------10p7------|
B|----10p8--|8-8---8-8\--3/8---8-8---8-8---8-8\--3/8-------10p8--|
G|--------9-|--------------------------------------------------9-|
D|----------|----------------------------------------------------|
A|----------|----------------------------------------------------|
E|----------|----------------------------------------------------|x1

E|10-10---10-10\--3/10---10-10---10-10\---3/10---/10-10-10-|
B|---------------------------------------------------------|
G|---------------------------------------------------------|
D|---------------------------------------------------------|
A|---------------------------------------------------------|
E|---------------------------------------------------------|x1
Добавлено: 02.09.2013
Другие материалы по этой песне:
  • Аккорды и текст

Страница создана 12.06.2013
http://primanota.ru/a-great-big-pile-of-leaves/mystery-of-the-brain-chords.htm
Привет, Гость.
Предлагаем пройти революционный курс по гитаре.
Подарок от PrimaNota.Ru, забирай!