PrimaNota.ru - самый крупный в мире бесплатный архив песенных текстов, аккордов, табулатур и нот


A Great Big Pile Of Leaves - A Few Screws Loose - таба, видео

Регистрация Запомнить меня
Войти через:  Facebook Google Twitter Vk Yandex Mail.ru

A Great Big Pile Of Leaves - A Few Screws Loose - таба, видео

Печатать
Просмотров: 127
Уроки эстрадного вокала в Санкт-Петербурге
CAPO 6

Guitar 1 - Capo 6, Swing Tempo, Clean.
(0:00) x2.
e|--------------------|----------------------|
B|--------------------|----------------------|
G|--------------------|----------------------|
D|--0-----0---0-----0-|----0-----0-----------|
A|----0h2-------0h2---|------0h2------0---2--|
E|3---------3---------|0h3---------3---------|

e|--------------------|------------------------|
B|--------------------|----------------------0-|
G|--0-----0---0-----0-|----0-----0-----0-------|
D|----0h2-------0h2---|------0h2---------0h2---|
A|3---------3---------|0h3---------0h3---------|
E|--------------------|------------------------|


(0:13) - Same as (0:00) x4.


(0:40) x2.
e|--------------------|--------------------|
B|(0)-----------------|--------------------|
G|4---------------4-4-|4---2---0-------0h4-|
D|0-------------------|------------2-------|
A|2-------------------|--------------------|
E|3-------------------|--------------------|

e|--------------------|--------------------|
B|(0)-----------------|------------3-------|
G|4---------------4-4-|4---2---4-------4---|
D|2-------------------|--------------------|
A|3-------------------|--------------------|
E|--------------------|--------------------|


(0:53) - Same as (0:00) x4.


(1:19) - Same as (0:40) x2.


(1:32) x4.
e|------------------------|--------------------------|
B|3---3-3---3-3---3-3---3-|3---3-3---3-3-3-3-3-3-3-3-|
G|4---4-4---4-4---4-4---4-|4---4-4---4-4-4-4-4-4-4-4-|
D|0---0-0---0-0---0-0---0-|0---0-0---0-0-0-0-0-0-0-0-|
A|2---2-2---2-2---2-2---2-|2---2-2---2-2-2-2-2-2-2-2-|
E|3---3-3---3-3---3-3---3-|3---3-3---3-3-3-3-3-3-3-3-|

e|------------------------|--------------------------|
B|3---3-3---3-3---3-3---3-|3---3-3---3-3-3-3-3-3-3-3-|
G|4---4-4---4-4---4-4---4-|4---4-4---4-4-4-4-4-4-4-4-|
D|2---2-2---2-2---2-2---2-|2---2-2---2-2-2-2-2-2-2-2-|
A|3---3-3---3-3---3-3---3-|3---3-3---3-3-3-3-3-3-3-3-|
E|------------------------|--------------------------|


(1:59) x1.
e|--------------------|--------------------|
B|(0)-----------------|--------------------|
G|4---------------4-4-|4---2---0-------0h4-|
D|0-------------------|------------2-------|
A|2-------------------|--------------------|
E|3-------------------|--------------------|

e|--------------------|--------------------|
B|(0)-----------------|------------3-------|
G|4---------------4-4-|4---2---4-------4---|
D|0-------------------|--------------------|
A|2-------------------|--------------------|
E|2-------------------|--------------------|

e|--------------------|--------------------|
B|--------------------|--------------------|
G|0-------------------|--------------------|
D|2-------------------|--------------------|
A|3-------------------|--------------------|
E|--------------------|--------------------|


(2:10) x7.
e|--------------------|--------------------|
B|(0)-----------------|--------------------|
G|4---------------4-4-|4---2---0-------0h4-|
D|0-------------------|------------2-------|
A|2-------------------|--------------------|
E|3-------------------|--------------------|

e|--------------------|--------------------|
B|(0)-----------------|------------3-------|
G|4---------------4-4-|4---2---4-------4---|
D|0-------------------|--------------------|
A|2-------------------|--------------------|
E|2-------------------|--------------------|

e|--------------------|--------------------|
B|3-----3---------3---|3-------------------|
G|4-----4---------4---|4-------------------|
D|2-----2---------2---|2-------------------|
A|3-----3---------3---|3-------------------|
E|--------------------|--------------------|


(3:25) x4.
e|--------------------|--------------------|
B|3-----3---------3---|3-------------------|
G|4-----4---------4---|4-------------------|
D|2-----2---------2---|2-------------------|
A|3-----3---------3---|3-------------------|
E|--------------------|--------------------|


(3:48) - Same as (0:00) x2.


(4:00) - Same as (1:32) x4.
Добавлено: 17.06.2013
Другие материалы по этой песне:
  • Аккорды и текст

Страница создана 17.06.2013
http://primanota.ru/a-great-big-pile-of-leaves/a-few-screws-loose-chords.htm
Привет, Гость.
Предлагаем пройти революционный курс по гитаре.
Подарок от PrimaNota.Ru, забирай!