PrimaNota.ru - самый крупный в мире бесплатный архив песенных текстов, аккордов, табулатур и нот


A Global Threat - Cut Ups - таба, видео

Регистрация Запомнить меня
Войти через:  Facebook Google Twitter Vk Yandex Mail.ru

A Global Threat - Cut Ups - таба, видео

Печатать
Просмотров: 204
Alright, so this is an awesome song from an amazing band (R.I.P, AGT).

I haven't tabbed the solo, but as soon as I do I'll put it up. 

Intro
e|-----|
B|-----|
G|-----|
D|11/--|
A|11/--|
E|-9/--|

Verse
e|-----------------------|
B|-----------------------|
G|-----------------------|
D|------------------6-5--|
A|333-8-7-66-3-6666-4-3--|
E|111-6-5-44-1-4444------|

Chorus (not perfect, I know, but close)
e|-----------------------------------------------------------------|
B|-----------------------------------------------------------------|
G|----------------------4------------------------------------------|
D|999----------------2-4-4-----4--6-------4-44---------------------|
A|777-9-99-444-666--2-2----2--4--6-6--222-2-22-444-666--5-5-55-5-4-|
E|----7-77-222-444-0--------2---4-----000------222-444--3-3-33-3-2-|

Fast part
e|----------------------|
B|----------------------|
G|----------------------|
D|10-10-10-4-44-6-66-5--|
A|-8--8--8-6-66-4-44-3--|
E|---------4-44---------|

"The antidote has gone up in smoke..."
e|-------------6b--|
B|-------------6b--|
G|333333333333-----|
D|333333333333-----|
A|111111111111-----|
E|-----------------|

Добавлено: 29.05.2012
Другие материалы по этой песне:
  • Аккорды и текст

Страница создана 29.05.2012
http://primanota.ru/a-global-threat/cut-ups-chords.htm
Привет, Гость.
Предлагаем пройти революционный курс по гитаре.
Подарок от PrimaNota.Ru, забирай!