PrimaNota.ru - самый крупный в мире бесплатный архив песенных текстов, аккордов, табулатур и нот


A Future Corrupt - Captain America - таба, бас-таба, видео

Регистрация Запомнить меня
Войти через:  Facebook Google Twitter Vk Yandex Mail.ru

A Future Corrupt - Captain America - таба, бас-таба, видео

Печатать
Просмотров: 175
Captain America - A Future Corrupt
This song is the property of A Future Corrupt and the tab is the work of Jake Thurston. 
Do not duplicate this in any way without direct permission.

Tab Type: Guitar (7 string)
Tuning: Drop A
Form: (Intro x1(Just guitar),Intro x3,2step x2,verse x1,chorus x2,    
chorus2 x2,Bridge x1,Intro x2,8String D-jent,Breakdown(Devil Chords) x8, Breakdown(open) x4

Intro
E|---------------------------------------------------------|
B|---------------------------------------------------------|
G|---------------------------------------------------------|
D|---------------------------------------------------------|
A|---------------------------------------------------------|
E|-------------1------------1---------------1--------------|
A|-2b00-002-002---002-002-00--4-2b00-002-002---002-005-4-1-|

2step
E|----------------------------------------------|-----------------|
B|----------------------------------------------|-----------------|
G|----------------------------------------------|-----------------|
D|----------------------------------------------|-----------------|
A|----------------------------------------3-2---|-----------------|
E|-----------1-----------------------1--------4-|-----------------|
A|1b0-5b0-015--0-005-4-1--1b0-5b0-015-0-00------|-0---1--5--------|
                                                  Play last time only
Verse                                                
E|---------------------------------------------------------------------------------------------|
B|---------------------------------------------------------------------------------------------|
G|---------------------------------------------------------------------------------------------|
D|---------------------------------------------------------------------------------------------|
A|---------------------------------------------------------------------------------------------|
E|--5-8-5h8---4-7-4h7---5-8--5h8-8h12p8h10p87h8h10---5-8-5h8---4-7-4h7---1-4-1h4-0-------------|
A|00-0-0----00-0-0----00-0-0-----------------------00-0-0----00-0-0----00-0-0----0-------------|

Chorus
E|----------------------------------------------------------------|
B|----------------------------------------------------------------|
G|----------------------------------------------------------------|
D|----------------------------------------------------------------|
A|----------------------------------------------------------------|
E|--------556655-------11-----------------------------------------|
A|55555588------88-1155--55-00447744------------------------------|
  Short Staccato Feel
Chorus 2 
E|---------------------------------------------|------------------|
B|---------------------------------------------|------------------|
G|---------------------------------------------|------------------|
D|---------------------------------------------|------------------|     
A|-------7--87--------3------------------------|------------------|
E|5--7h8-------8--1-5---5--0-4-7-4-------------|--5---------------|
A|---------------------------------------------|--0---------------|
   Heavy Swing Feel                             Play Last time only
Bridge
E|---------------------------------|--------------------------------------|
B|---------------------------------|--------------------------------------|
G|---------------------------------|--------------------------------------|
D|---------------------------------|--------------------------------------|
A|7777--7777--------5555--5555-----|7777--7777--------5555--0000----------|
E|8888--8888-7h87h8-4444--4444-5---|8888--8888-7h87h8-4444--1111--5-------|
A|0000--0000--------0000--0000----8|0000--0000--------0000--0000----8-----|
                                    Play this part twice
8 string Djent
Stupid Low E|-1b00-0-0---1b00-0-0----0-00-0-0-1b00-0-0---1b00-0-0---------|

Breakdown
E|-------------------------------|------------------------------|
B|-------------------------------|------------------------------|
G|-------------------------------|------------------------------|
D|-------------------------------|------------------------------|
A|11111-1--11111-1--111--111-----|-00000-0--00000-0--000-000----|
E|00000-0--00000-0--000--000-----|-00000-0--00000-0--000-000----|
A|11111-1--11111-1--111--111-----|-00000-0--00000-0--000-000----|
Добавлено: 02.10.2013
Другие материалы по этой песне:
  • Аккорды и текст

Страница создана 10.09.2013
http://primanota.ru/a-future-corrupt/captain-america-chords.htm
Привет, Гость.
Предлагаем пройти революционный курс по гитаре.
Подарок от PrimaNota.Ru, забирай!