PrimaNota.ru - самый крупный в мире бесплатный архив песенных текстов, аккордов, табулатур и нот


A Fine Frenzy - Whisper - текст песни, таба, видео

Регистрация Запомнить меня
Войти через:  Facebook Google Twitter Vk Yandex Mail.ru

A Fine Frenzy - Whisper - текст песни, таба, видео

Печатать
Просмотров: 242
Уроки эстрадного вокала в Санкт-Петербурге
Авторы музыки: Lukas Burton, Alison Sudol
Авторы текста: Alison Sudol
Whisper – A Fine Frenzy, One Cell in the Sea
Standard Tuning, Capo 1

Riff 1
e|------------| 
B|--5-4-2-0---| 
G|------------| 
D|------------|
A|------------|
E|------------|

Intro:
    A                 G            D
e|-----------------------------------------| 
B|--14-14-12--14-10---14-14-12--14—12-10---| 
G|-----------------------------------------| 
D|-----------------------------------------|
A|-----------------------------------------|
E|-----------------------------------------|

    A                 G            D
e|----------------------------------------------| 
B|--14-14-12--14-10---14-14-12--14—12-10--------| 
G|------------------------------------------12--| 
D|----------------------------------------12----|
A|----------------------------------------------|
E|----------------------------------------------|

    A       G          D      A          G         D
e|---------------------------------------------------|
B|------2-5-----3-2---------------2-5-3-2----3-2-----| 
G|--2-4-----4-------4-2-----2-2-4---------4------4-2-| 
D|----------------------4----------------------------|
A|---------------------------------------------------|
E|---------------------------------------------------|

Verses
   A            G         D
e|---------------------------| 
B|------2-5-3-2--------------| 
G|--2-4---------4-2-0—--4-2--|   X2
D|---------------------------|
A|---------------------------|
E|---------------------------|

[verse 1]
A
Running the race like a mouse in a cage
            G                        D
Getting nowhere but I'm trying
A
Forging ahead but I'm stuck in the bed
G                    D
That I made so I'm lying


[pre chorus]
     A
But if you keep real close
                G
Yeah, you stay real close
        D
I will reach you

[chorus]
     A
I'm down to a whisper
         G                 D   (Riff 1)
In a daydream on a hill
         A
Shut down to a whisper
              G          D
Can you hear me still

[verse 2]
A
Eager to please, trying to be what they need
            G          D
But I'm so very tired
A
I've stopped trying to find any peace in my mind
            G                   D
Because it tangles the wires


[pre chorus]
     A
But if you keep real close
                G
Yeah, you stay real close
        D
I will reach you
[chorus]
     A
I'm down to a whisper
         G                 D   (Riff 1)
In a daydream on a hill
         A
Shut down to a whisper
              G          D
Can you hear me still

[bridge]
       E       A                D
The sound tires on my lips
 Bm         A                E
To fade away into forgetting

[chorus]
     A
I'm down to a whisper
         G                 D   (Riff 1)
In a daydream on a hill
         A
Shut down to a whisper
              G          D
Can you hear me still


[chorus]
     A
I'm down to a whisper
         G                 D   (Riff 1)
In a daydream on a hill
         A
Shut down to a whisper
              G          D
Can you hear me still


[outro]
A  G  D
A  G  D
A  D  E
A
Добавлено: 30.04.2012
Другие материалы по этой песне:
  • Аккорды и текст

Страница создана 30.04.2012
http://primanota.ru/a-fine-frenzy/whisper-chords.htm
Привет, Гость.
Предлагаем пройти революционный курс по гитаре.
Подарок от PrimaNota.Ru, забирай!