PrimaNota.ru - самый крупный в мире бесплатный архив песенных текстов, аккордов, табулатур и нот


A Day To Remember - Violence Enough Is Enough - таба, видео

Регистрация Запомнить меня
Войти через:  Facebook Google Twitter Vk Yandex Mail.ru

A Day To Remember - Violence Enough Is Enough - таба, видео

Печатать
Просмотров: 363
Авторы музыки: Tom Denney, Kevin Skaff, Jeremy McKinnon, Andrew Wade, Neil Westfall
Авторы текста: Jeremy McKinnon
Intro (Played 2X):

e|----------------------------------------------------------------|
B|----------------------------------------------------------------|
G|----------------------------------------------------------------|
D|-7p0-------5h7p5-5-----7p0--------/88887777p0-------5h7p5-5-----|
A|-----7-8-5------8-5-7-8----7-8-5--------------7-8-5------8-5-7-8|
E|----0-0-0-0---------------5-5-5-5------------8-8-8-8------------|
      . . . .               . . . .            . . . .                              
e|---------------------------------------------------------------|
B|---------------------------------------------------------------|
G|-----------7777666---------------------------------------------|
D|7p0--------XXXXXXX---------------------------------------------|
A|----7-8-5--5555444---------------------------------------------|
E|---7-7-7-7-----------------------------------------------------|
     . . . .
Verse 1:

e|---------------------------------------------------------------|
B|---------------------------------------------------------------|
G|---------------------------------------------------------------|
D|----------------7--------------------------------------7h8p7-7-|
A|-8p5-------------8-8p5------------------8p5---5---8---------8-8|
E|----800870r0r0r---0---800870r8p7777\333----888-888-888---------|
                                             . . . . . .
e|---------------------------------------------------------------|
B|---------------------------------------------------------------|
G|----------------7------10------6------3------2------6----------|
D|-7--7-r-0--0----X(32X)-X-(16X)-X(16X)-X(32X)-X(16X)-X(16X)-----|
A|--8--8r--4--4---5------8-------4------1------0------4----------|
E|0--0--r7--7—-7/\-----------------------------------------------|
         .  .  .  TP     TP      TP     TP     TP     TP
Pre-Chorus:

e|---------------------------------------------------------------|
B|---------------------------------------------------------------|
G|---------------------------------------------------------------|
D|--5-7-5-6-5-------0-3-0-2-0-2-3-0-0---0-3-0-2-0-------0-3-3-2-2|
A|------------5-5501-1---1---1---1----00-0---0---00-0003-3---3---|
E|-5-5---5---5---------------------------------------------------|
   . .   .   .    .. .   .   .   .    .. .   .       ... .   .
e|---------------------------------------------------------------|
B|---------------------------------------------------------------|
G|---------------------------------------------------------------|
D|-2-3-0---5-7-5-6-5---------------------------------------------|
A|3---3--------------5-5---------4444r-4444/7-7-7-7--------------|
E|--------5-5---5---5----777777777777r-7777/10101010-------------|
  .   .   . .   .   .    ........
Chorus (Played 2X):

e|---------------------------------------------------------------|
B|---------------------------------------------------------------|
G|---------10101010r-10r-1010101010------------------------------|
D|---------X-X-X-X-r-X-r-X-X-X-X-X---------8888r-8r-88888--------|
A|---------8-8-8-8-r-8-r-8-8-8-8-8---------5555r-5r-55555--------|
E|-000000000-0-0-0-r-0-r-0-0-0-0-0-555555555555r-5r-5555588888888|
   ........                        ........              ........
e|---------------------------------------------------------------|
B|---------------------------------------------------------------|
G|---------------------------------------------------------------|
D|---------------------------------------------------------------|
A|5555r-5r-55555--------4444r-4r-4/7-7-7-7-----------------------|
E|8888r-8r-88888777777777777r-7r-7/10101010----------------------|
                ........

Pre Verse (Immediately into Verse 2:

e|---------------------------------------------------------------|
B|---------------------------------------------------------------|
G|---------------------------------------------------------------|
D|-----------------7---------------------------------------------|
A|-8p5--------------8--------------------------------------------|
E|----80r-870r0r0r---0-------------------------------------------|

Verse 2:
e|---------------------------------------------------------------|
B|---------------------------------------------------------------|
G|---------------------------------------------------------------|
D|----------------7--------------------------------------7h8p7-7-|
A|-8p5-------------8-8p5------------------8p5---5---8---------8-8|
E|----800870r0r0r---0---800870r8p7777\333----888-888-888---------|
                                             . . . . . .
e|---------------------------------------------------------------|
B|---------------------------------------------------------------|
G|---------------------------------------------------------------|
D|-7--7-r-0--0---------------------------------------------------|
A|--8--8r--4--4--------------------------------------------------|
E|0--0--r7--7—-7/\-----------------------------------------------|
         .  .  .   lead straight into the tab below after the slide
e|---------------------------------------------------------------|
B|---------------------------------------------------------------|
G|---------------------------------------------------------------|
D|---------------------------------------------------------------|
A|---------------------------------------------------------------|
E|-5500550055885500550055885500550055885500550055005588-(3X)-----|
TP ....................................................               
                                then lead, from that, into this
e|---------------------------------------------------------------|
B|---------------------------------------------------------------|
G|---------------------------------------------------------------|
D|---------------------------------------------------------------|
A|---------------------------------------------------------------|
E|-550055005588550055005588/\\\\---------------------------------|
   ........................

Pre-Chorus

Chorus (Played 2X)

Breakdown 1:

e|---------------------------------------------------------------|
B|---------------------------------------------------------------|
G|---------------------------------------------------------------|
D|---------------------------------------------------------------|
A|-000-000-000-000-000-000-00-00-00000-000-000-000-000-000-000-00|
E|-000-000-000-000-000-000-00-00-00000-000-000-000-000-000-000-00|
   ... ... ... ... ... ... .. .. ..... ... ... ... ... ... ... ..

        Those are 16's, not 1's and 6's.
e|------16\\\(whammy dive)\\\\\\\r-------------------------------|
B|------16\\\(whammy dive)\\\\\\\r-------------------------------|
G|---------------------------------------------------------------|
D|---------------------------------------------------------------|
A|0-000----------------------------------------------------------|
E|0-000----------------------------------------------------------|
  . ...


Breakdown 2:
             These are 12's and 13's, not 1's, 2's, and 3's.
e|---------------------------------------------------------------|
B|---------------------------------------------------------------|
G|---------------------------------------------------------------|
D|12------12-----bbbb13br12-(4X)r--12------12-----bbbb13br12-----|
A|---------------------------------------------------------------|
E|---------------------------------------------------------------|

e|---------------------------------------------------------------|
B|---------------------------------------------------------------|
G|-----10--------------------------------------------------------|
D|-12------------------12------12-----bbbb13br12-(2X)r-----------|
A|---------------------------------------------------------------|
E|---------------------------------------------------------------|

End of Chorus When Guitar Kicks Back In:

e|---------------------------------------------------------------|
B|---------------------------------------------------------------|
G|-7-----6--9----------------------------------------------------|
D|-X-----X--X----------------------------------------------------|
A|-5-----4--7----------------------------------------------------|
E|-0-----0--0----------------------------------------------------|

Chorus (Played 1X) and Outro:

e|---------------------------------------------------------------|
B|---------------------------------------------------------------|
G|---------10101010r-10r-1010101010------------------------------|
D|---------X-X-X-X-r-X-r-X-X-X-X-X---------8888r-8r-88888--------|
A|---------8-8-8-8-r-8-r-8-8-8-8-8---------5555r-5r-55555--------|
E|-000000000-0-0-0-r-0-r-0-0-0-0-0-555555555555r-5r-5555588888888|
   ........                        ........              ........
                             Again, 12's, 13's, 14's, and 15's.
e|---------------------------------------------------------------|
B|---------------------------14bbbb15----------------------------|
G|---------------------------------------------------------------|
D|-----------------------------------12------12-----bbbb13br12---|
A|5555r-5r-55555--------4444-------------------------------------|
E|8888r-8r-88888777777777777-------------------------------------|
                ........
e|---------------------------------------------------------------|
B|---------------------------------------------------------------|
G|---------------------------------------------------------------|
D|---12------12-----bbbb13br12r----------------------------------|
A|---------------------------------------------------------------|
E|---------------------------------------------------------------|

Tab Key:

p – pull-off
A ‘.' below a note - palm muted
h – hammer-on
/ - slide up
r - rest
\ - slide down
/\ - quick slide up and down the length of the fret board
TP below a series of notes - tremolo picking
b – bend
bbbb – slower bend
br – bend release
Добавлено: 18.10.2013
Другие материалы по этой песне:

Страница создана 20.06.2013
http://primanota.ru/a-day-to-remember/violence-enough-is-enough-chords.htm
Привет, Гость.
Предлагаем пройти революционный курс по гитаре.
Подарок от PrimaNota.Ru, забирай!