PrimaNota.ru - самый крупный в мире бесплатный архив песенных текстов, аккордов, табулатур и нот


A Day To Remember - Since You Been Gone - таба, видео

Регистрация Запомнить меня
Войти через:  Facebook Google Twitter Vk Yandex Mail.ru

A Day To Remember - Since You Been Gone - таба, видео

Печатать
Просмотров: 156
-------------------------------------------------------------------------------
                             SINCE YOU BEEN GONE
-------------------------------------------------------------------------------
Tabbed by:
E-mail:

Tuning: Drop C

Into - clean

D|-------------------|-----------------------------------------|
A|-------------------|-----------------------------------------|
F|-------------------|-----------------------------------------|
C|-------------------|-----------------------------------------|
G|--0000000000000000-|-0000000000000000--0000000000003333------|
C|--3333333333333333-|-3333333333335555--0000000000002222------|


D|----------------------------------|
A|----------------------------------|
F|----------------------------------|
C|----------------------------------|
G|--0000000000000000---000000000000-|
C|--3333333333335555---000000000000-|

 Verse - Overdrive

D|------------------------------------------|
A|------------------------------------------|
F|------------------------------------------|
C|------------------------------------------|
G|-33---3333333333335555---0000000000003333-|
C|-22---3333333333335555---0000000000002222-|
   **   ****************   ****************
        |__________________________________|
                        x2

D|--------------------------------------------------------|
A|--------------------------------------------------------|
F|--------------------------------------------------------|
C|--------------------------------------------------------|
G|---33-3-333-3-333-3-355-5-5--00-0-000-0-000-0-033-3-3---|
C|---33-3-333-3-333-3-355-5-5--00-0-000-0-000-0-022-2-2---|
     **   ***   *** * ***   *  **   ***   ***   ***   *

D|--------------------------|
A|--------------------------|
F|--------------------------|
C|--------------------------|
G|---33-3-333-3-333-3-3-5---|
C|---33-3-333-3-333-3-3-5---|
     **   ***   *** * *
Chorus

D|------------------------------------------------------------------------------------------|
A|------------------------------------------------------------------------------------------|
F|------------------------------------------------------------------------------------------|
C|------------------------------------------------------------------------------------------|
G|--777-888-33333333--777-888-33333333--0000888-33333333--55555555-00000000-33333333-5------|
C|--777-888-33333333--777-888-33333333--0000888-33333333--55555555-00000000-22222222-5------|
                                                                            ********
Interlude

D|-------------------------------|
A|-------------------------------|
F|-------------------------------|
C|-----3----3---3----3-----------|
G|-----------------------33------|
C|--33---33---3---33---3-22--2PH-|


2nd verse - (play first verse again but listen for the rhythm)


Chorus


Bridge

D|-------------------------------------------------------------------------------|
A|-------------------------------------------------------------------------------|
F|-------------------------------------------------------------------------------|
C|--------------------------------------------------5*----5*---------------------|
G|--88888888-00000000-88888888-00003---------------------------------------------|
C|--88888888-00000000-88888888-00003----88888888-00---000----0-8888888888888888--|

Effects

D|-------------------------------|
A|-------------------------------|
F|-------------------------------|
C|-------------------------------| x3
G|-----------------888888888888--|
C|--7777-888888888---------------|

D|-------------------------|
A|-------------------------|
F|-------------------------|
C|-------------------------|
G|-----------------3-3-3-3-|
C|--7777-888888888-2-3-3-3-|


Chorus

D|----------------------------------------------------------------------------|
A|----------------------------------------------------------------------------|
F|----------------------------------------------------------------------------|
C|----------------------------------------------------------------------------|
G|--777-888-33333333--777-888-33333333--0000888-33333333--55555555-00000000---|
C|--777-888-33333333--777-888-33333333--0000888-33333333--55555555-00000000---|

D|-----------------------------------------------------------------------------------------------|
A|-----------------------------------------------------------------------------------------------|
F|-----------------------------------------------------------------------------------------------|
C|-----------------------------------------------------------------------------------------------|
G|--3---788--3--333--333--3--788-3--333--/---0000888-33333333--55555555-00000000-33333333-5\3----|
C|--3---788--3--333--333--3--788-3--333--/---0000888-33333333--55555555-00000000-22222222-5\3----|
                                                               |_______________| 
********                                                                                        
                                  X2
Добавлено: 02.09.2015
Другие материалы по этой песне:
  • Аккорды и текст

Страница создана 02.09.2015
http://primanota.ru/a-day-to-remember/since-you-been-gone-chords.htm
Привет, Гость.
Предлагаем пройти революционный курс по гитаре.
Подарок от PrimaNota.Ru, забирай!