PrimaNota.ru - самый крупный в мире бесплатный архив песенных текстов, аккордов, табулатур и нот


A Day To Remember - Holdin It Down For The Underground - текст песни, таба, бас-таба, видео

Регистрация Запомнить меня
Войти через:  Facebook Google Twitter Vk Yandex Mail.ru

A Day To Remember - Holdin It Down For The Underground - текст песни, таба, бас-таба, видео

Печатать
Просмотров: 495
-------------------------------------------------------------------------------
                             SONG NAME - Band Name
-------------------------------------------------------------------------------
Tabbed by:Zack Holden
Email:zackdh1992@yahoo.com myspace.com/zackdh92

Tuning:Drop C (not like template)
umm just a basic thing i threw together.


Intoro Guitar 1
e|---------------------------------------------------------------------------|
B|------10-----10-------10-------10------10-----10-----------------10--------|
G|------10-----10-------10-------10------10-----10-----------------10--------|
D|--8-8----8-8-----------------------0-0----0-0--------------------0---------|
A|----------------10-10----10-10---------------------------------------------|
E|---------------------------------------------------------------------------|
Guitar 2
e|---------------------------------------------------------------------------|
B|---------------------------------------------------------------------------|
G|---------------------------------------------------------------------------|
D|--8-----5-----0------------------------------------------------------------|
A|--8x8---5x8---0x8----------------------------------------------------------|
E|--8-----5-----0------------------------------------------------------------|
Guitar 1
e|------------------------------------------------------------------------------------|
B|------------------------------------------------------------------------------------|
G|------------------------------------------------------------------------------------|
D|--0-0-0-0-0-0-0---------------------------------------------------------------------|
A|--0-0-0-0-0-0-0---------------------------------------------------------------------|
E|--0-0-0-0-0-0-0---------------------------------------------------------------------|
Guitar 2
e|------------------------------------------------------------------------------|
B|------------------------------------------------------------------------------|
G|------------------------------------------------------------------------------|
D|--0---------------------------------------------------------------------------|
A|--0---------------------------------------------------------------------------|
E|--0---------------------------------------------------------------------------|
Play that power chord but youll have to listen for rhythm. corrections!
Добавлено: 18.06.2012
Другие материалы по этой песне:

Страница создана 23.02.2012
http://primanota.ru/a-day-to-remember/holdin-it-down-for-the-underground-chords.htm
Привет, Гость.
Предлагаем пройти революционный курс по гитаре.
Подарок от PrimaNota.Ru, забирай!