PrimaNota.ru - самый крупный в мире бесплатный архив песенных текстов, аккордов, табулатур и нот


A Change Of Pace - Recipe For Disaster - текст песни, таба, видео

Регистрация Запомнить меня
Войти через:  Facebook Google Twitter Vk Yandex Mail.ru

A Change Of Pace - Recipe For Disaster - текст песни, таба, видео

Печатать
Просмотров: 114
-------------------------------------------------------------------------------
			     Recipe for Disaster - A Change of Pace
-------------------------------------------------------------------------------
Tabbed by: rockobsesse
Email: kelseyluo@hotmail.com

Tuning: Standard

I can't find any guitar tabs for this song, so i decided to tab it myself. I'm not 100% 
it's correct, but I tried my best and this song rocks!
Leave any comments or corrections and I hope you guys like it!

Intro
e|------------------------------------------------------------------------------------------|
B|------------------------------------------------------------------------------------------|
G|9-9-9-9-9-9-9-9-9-9-9-9-8-8-8--x9--9-9-9-9-9-9-9-9-9-9-9-9-9-9----------------------------|
D|------------------------------------------------------------------------------------------|
A|------------------------------------------------------------------------------------------|
E|------------------------------------------------------------------------------------------|

Bridge
e|-------------------0-0-\\\\---------------------------------------------------------------|
B|-------------------0-0-\\\\---------------------------------------------------------------|
G|8-8-8-8-9-9-9--x6--1-1-\\\\---------------------------------------------------------------|
D|-------------------2-2-\\\\---------------------------------------------------------------|
A|-------------------2-2-\\\\---------------------------------------------------------------|
E|-------------------0-0-\\\\---------------------------------------------------------------|

Verse 1

e|0-0-0-0----2-2-2-2----5-5-5-5------------5-4-0-0-0-0----2-2-2-2----5-5-5-5---------|------|
B|0-0-0-0----2-2-2-2----5-5-5-5------------5-4-0-0-0-0----2-2-2-2----5-5-5-5---------|------|
G|1-1-1-1-x4-2-2-2-2-x4-6-6-6-6-x4---------6-4-1-1-1-1-x4-2-2-2-2-x4-6-6-6-6-x4------|------|
D|2-2-2-2----4-4-4-4----7-7-7-7----2-2-1-1-7-6-2-2-2-2----4-4-4-4----7-7-7-7----2-2-1|-2----|
A|2-2-2-2----4-4-4-4----7-7-7-7------------7-6-2-2-2-2----4-4-4-4----7-7-7-7---------|---0--|
E|0-0-0-0----2-2-2-2----5-5-5-5------------5-4-0-0-0-0----2-2-2-2----5-5-5-5---------|-----4|

Repeat the beginning of the Intro

Chorus

e|0-0-0-0----0-0-0--5-5-5-5----5-5-5--4-4-4-4----4-4-4--2-2-2-2----2-2-2--------------------|
B|0-0-0-0----0-0-0--5-5-5-5----5-5-5--4-4-4-4----4-4-4--2-2-2-2----2-2-2--------------------|
G|1-1-1-1-x3-1-1-1--6-6-6-6-x3-6-6-6--4-4-4-4-x3-4-4-4--2-2-2-2-x3-2-2-2--------------------|
D|2-2-2-2----2-2-2--7-7-7-7----7-7-7--6-6-6-6----6-6-6--4-4-4-4----4-4-4--------------------|
A|2-2-2-2----2-2-2--7-7-7-7----7-7-7--6-6-6-6----6-6-6--4-4-4-4----4-4-4--------------------|
E|0-0-0-0----0-0-0--5-5-5-5----5-5-5--4-4-4-4----4-4-4--2-2-2-2----2-2-2--------------------|

Repeat the Bridge and Verse 1

e|5-5-5-0-0-0-0-0----2-2-2-0-0-0-0-0-------0-0-0-0-0----------------------------------|
B|5-5-5-0-0-0-0-0----2-2-2-0-0-0-0-0-------0-0-0-0-0----------------------------------|
G|6-6-6-1-1-1-1-1-x2-2-2-2-1-1-1-1-1-------1-1-1-1-1----------------------------------|
D|7-7-7-2-2-2-2-2----4-4-4-2-2-2-2-2-1-1-1-2-2-2-2-2----------------------------------|
A|7-7-7-2-2-2-2-2----4-4-4-2-2-2-2-2-------2-2-2-2-2----------------------------------|
E|5-5-5-0-0-0-0-0----2-2-2-0-0-0-0-0-------0-0-0-0-0----------------------------------|

e|5-5-5-5----7-7-7-7------------------------------------------------------------------------|
B|5-5-5-5----7-7-7-7------------------------------------------------------------------------|
G|6-6-6-6-x2-8-8-8-8-x2---------------------------------------------------------------------|
D|7-7-7-7----9-9-9-9------------------------------------------------------------------------|
A|7-7-7-7----9-9-9-9------------------------------------------------------------------------|
E|5-5-5-5----7-7-7-7------------------------------------------------------------------------|

Repeat the Bridge and Verse 1


Enjoy!
Добавлено: 08.11.2013
Другие материалы по этой песне:
  • Аккорды и текст

Страница создана 08.11.2013
http://primanota.ru/a-change-of-pace/recipe-for-disaster-chords.htm
Привет, Гость.
Предлагаем пройти революционный курс по гитаре.
Подарок от PrimaNota.Ru, забирай!