PrimaNota.ru - самый крупный в мире бесплатный архив песенных текстов, аккордов, табулатур и нот


A Change Of Pace - Prepare the Masses - текст песни, таба, видео

Регистрация Запомнить меня
Войти через:  Facebook Google Twitter Vk Yandex Mail.ru

A Change Of Pace - Prepare the Masses - текст песни, таба, видео

Печатать
Просмотров: 150
Prepare the Masses
A Change of Pace

This is a great song and my first tab.  I'm pretty proud of it.
Listen to the song for the exact timing, once you get it, which
you will, its a load of fun.  While your add it check out my band


Enjoy!

Tuned to Drop D
p=pull off
...=let ring

Intro/Verse

Guitar 1
e----------------------------------------------|
b----------------------------------------------|
g----------------------------------------------|
d-10-10-10-10----------------------------------|
a-10-10-10-10----------------------------------|
d-10-10-9--9-----------------------------------|

e----------------------------------------------|
b----------------------------------------------|
g----------------------------------------------|
d-33-7-5-7-5-3-7-5-7-5-33-7-5-7-5-10-10-10-10--|
a-33-7-5-7-5-3-7-5-7-5-33-7-5-7-5-10-10-10-10--|
d-33-7p5-7p5-3-7p5-7p5-33-7p5-7p5-10-10-9--9---|

Guitar 2
e--7-7-7-7-7-7-----------------------|listen to the song for this, its just a down
b--7-7-7-7-7-7-----------------------|and upstroke, he basically fools around with it
g------------------------------------|here and the chorus/refrain
d------------------------------------|
a------------------------------------|
d------------------------------------|

Pre Chorus
e------------------------------------|
b------------------------------------|
g------------------------------------|
d-3....5....7....--------------------|
a-3....5....7....--x2----------------|
d-3....5....7....--------------------|

e----------------------------------------------|listen for strumming
b----------------------------------------------|
g----------------------------------------------|
d-7---10---5---3-------------------------------|
a-7---10---5---3-------------------------------|
d-7---10---5---3-------------------------------|

Verse
Prechorus
Chorus

Post Chorus
e-----------------------------------------------|
b-----------------------------------------------|
g-----------------------------------------------|
d-5....5-7-5-3----------------------------------|
a-5....5-7-5-3----------------------------------|
d-5....5-7-5-3----------------------------------|

Prechorus
Chorus

end on
e-------------------------------------|
b-------------------------------------|
g-------------------------------------|
d-0....-------------------------------|
a-0....-------------------------------|
d-0....-------------------------------|
Добавлено: 01.10.2013
Другие материалы по этой песне:
  • Аккорды и текст

Страница создана 24.06.2012
http://primanota.ru/a-change-of-pace/prepare-the-masses-chords.htm
Привет, Гость.
Предлагаем пройти революционный курс по гитаре.
Подарок от PrimaNota.Ru, забирай!