PrimaNota.ru - самый крупный в мире бесплатный архив песенных текстов, аккордов, табулатур и нот


A C Acoustics - Waiter Strains - таба, видео

Регистрация Запомнить меня
Войти через:  Facebook Google Twitter Vk Yandex Mail.ru

A C Acoustics - Waiter Strains - таба, видео

Печатать
Просмотров: 158
Уроки эстрадного вокала в Санкт-Петербурге
A song from A.C Acoustics called WAITER STRAINS.
In this songs ther are violins in with the background
of the guitar.
I tabbed even the sound of the violins (since the
guitar under is the same)
Enjoy


INTRO
|----------------------------|
|----------------------------|
|---9---9-----9-----9------6-|
|-----7---7-----7--------4---|
|-0---------0-----0----5-----|
|----------------------------|


|---------------------------------|
|---------------------------------|
|------9---9-----9S11-9---9-----9-|
|--------7---7----------6---6h7---|
|----0---------0------------------|
|---------------------------------|


|----------------------------------------------|
|---9---9b----7-------9---9b-------------------|
|---------------6--------------12-11-9---------|
|-7---7-------------7---7--------------9-11-11-|
(Repeat Intro, listen to song)
|----------------------------------------------|
|----------------------------------------------|


|-------------------------------------------------|
|-------------------------------------------------|
|-------------------------------------------------|
|-16-16-16-16-14-14-14-14-18-18-18-18-19-19-21-21-|
(Violins sound)(01:28)
|-------------------------------------------------|
|-------------------------------------------------|


|---------------------------------|
|---------------------------------|
|---------------------------------|
|--------14s16s14--------14s16s14-|
|-0--0-0----------0--0-0----------|
|---------------------------------|


|-----------------------------|
|-----------------------------|
|-----------------------------|
|-19---18-19---18-19---18--14-| (Violins sound)(01:56)
|-----------------------------|
|-----------------------------|


|---------------------------------------|
|---9---9b11-7-----9---9b11-8-7-5-------|
|--------------6------------------4-6-6-|
|-7---7----------7---7------------------|
|---------------------------------------|
|---------------------------------------|

|------------------|
|------------------|
|------------------|
|------------------| (low violins sound)(03:54)
|-12-11-12-11-7----|
|------------------|

|------------------------------|
|------------------------------|
|------------------------------|
|-11-11-11h12p11-11-11-9-9-7-7-| (04:10)
|------------------------------|
|------------------------------|


|--------------------------------|
|--------------------------------|
|--------------------------------|
|-11-11-11h12p11-11-11-9-9-11-11-|
|--------------------------------|
|--------------------------------|

|----------------------------|
|----------------------------|
|-13-11----------------------|
|-------11-------------------| (05:14)
|----------14-14-14p12--12-12|
|----------------------------|


|----------------------------|
|----------------------------|
|-13-11-16-------------------|
|----------------------------|
|----------14-16-16s17s16-16-|
|----------------------------|

|---------------------------------------------------------------|
|---------------------------------------------------------------|
|-14----13-14----13-14----13-14----13-14---13-14----13-14----13-|
|---------------------------------------------------------------|
(05:55)
|---------------------------------------------------------------|
|---------------------------------------------------------------|


|----------------------------------|
|----------------------------------|
|-12-12-12-12-11-11----------------|
|----------------11-11-11h12p11-11-| (07:00)
|----------------------------------|
|----------------------------------|

Tabbed By RoB

Tablature Legend
----------------
 h   - hammer-on
 p   - pull-off
 b   - bend
 pb  - pre-bend
 r   - bend release (if no number after the r, then
release immediately)
 /\  - slide into or out of (from/to "nowhere")
 s   - legato slide
 S   - shift slide
 n>  - natural harmonic
[n]  - artificial harmonic
n(n) - tapped harmonic
 ~   - vibrato
 tr  - trill
 T   - tap
 TP  - trem. picking
 PM  - palm muting
\n/  - tremolo bar dip; n = amount to dip
 \n  - tremolo bar down
 n/  - tremolo bar up
/n\  - tremolo bar inverted dip
 =   - hold bend; also acts as connecting device for
hammers/pulls
  >  - volume swell (louder/softer)
 x   - on rhythm slash represents muted slash
 o   - on rhythm slash represents single note slash

***************************************************************************************
* Generated using Power Tab Editor by Brad Larsen -
     
Добавлено: 05.08.2013
Другие материалы по этой песне:
  • Аккорды и текст

Страница создана 05.08.2013
http://primanota.ru/a-c-acoustics/waiter-strains-chords.htm
Привет, Гость.
Предлагаем пройти революционный курс по гитаре.
Подарок от PrimaNota.Ru, забирай!