PrimaNota.ru - самый крупный в мире бесплатный архив песенных текстов, аккордов, табулатур и нот


A C Acoustics - Continuity Freak - таба, видео

Регистрация Запомнить меня
Войти через:  Facebook Google Twitter Vk Yandex Mail.ru

A C Acoustics - Continuity Freak - таба, видео

Печатать
Просмотров: 130
BAND:A.C.Acoustics
SONG:Continuity freak
TUNING:Normal

There are 2 guitars in this song. I tabbed only the
main one.
Some parts are repeated, I didn't put them in, just
listen to the song and u will figure it out.

Intro


|----------------------------|
|----------------------------|
|-7-7-7-6-6-6-9-9-4-6-6-6----|
|-7-7-7-6-6-6-9-9-4-6-6-6----|
|-5-5-5-4-4-4-7-7-2-4-4-4----|
|----------------------------|


|------------|
|------------|
|------------|
|-6-6-4-4----| 
|-6-6-4-4----|
|-4-4-2-2----|


|--------------------------------------|
|--------------------------------------|
|-----7-------7-------7---9-7---7-6----|
|---7---7---7---7---7---7-----7--------| (00:24)
|-5-------5-------5--------------------|
|--------------------------------------|


|---------------------------|
|---------------------------|
|---------------------------|
|-7--7-7s11s9-7--7-6-7-9----| (00:32)
|---------------------------|
|---------------------------|


|----------------------------------|
|----------------------10-9-7------|
|------9----9-11-9------------9----|
|-9-11---11--------11--------------| (00:40)
|----------------------------------|
|----------------------------------|


|----------------|
|----------------|
|------9---------|
|-9s11---11-9----| (00:44)
|----------------|
|----------------|


|----------------------------------|
|----------------------------------|
|-7-7-7-9-9-9-11-11-11-14-14-14----|
|-7-7-7-9-9-9-11-11-11-14-14-14----| (00:48)
|-5-5-5-7-7-7--9--9--9-12-12-12----|
|----------------------------------|


|------------------------------------------|
|------------------------------------------|
|------------------------------------------|
|-12-12-11-11-9-9-9-11--6-6-4-4-6-6-4-4----| (01:17)
|------------------------------------------|
|------------------------------------------|


|--------------------|
|--------------------|
|-14-------20--------|
|-12-(x15)-18-(x9)---| (01:37)
|--------------------|
|--------------------|


|--------------------|
|-2-2-2-2-0-0-0-0----|
|-2-2-2-2-2-2-2-2----|
|-2-2-2-2-2-2-2-2----| (02:22)
|--------------------|
|--------------------|


|-------------------------------------|
|--------------------------------0----|
|-7-7-7-9-9-9-11-11-11-14-14-14--2----|
|-7-7-7-9-9-9-11-11-11-14-14-14--2----| (03:02)
|-5-5-5-7-7-7--9--9--9-12-12-12-------|
|-------------------------------------|

Tabbed by Rob

|-|
|-|
|-|
|-|
|-|
|-|


Tablature Legend
----------------
 h   - hammer-on
 p   - pull-off
 b   - bend
 pb  - pre-bend
 r   - bend release (if no number after the r, then
release immediately)
 /\  - slide into or out of (from/to "nowhere")
 s   - legato slide
 S   - shift slide
 n>  - natural harmonic
[n]  - artificial harmonic
n(n) - tapped harmonic
 ~   - vibrato
 tr  - trill
 T   - tap
 TP  - trem. picking
 PM  - palm muting
\n/  - tremolo bar dip; n = amount to dip
 \n  - tremolo bar down
 n/  - tremolo bar up
/n\  - tremolo bar inverted dip
 =   - hold bend; also acts as connecting device for
hammers/pulls
  >  - volume swell (louder/softer)
 x   - on rhythm slash represents muted slash
 o   - on rhythm slash represents single note slash


* Generated using Power Tab Editor by Brad Larsen -
http://powertab.guitarnetwork.org *
     
Добавлено: 27.07.2013
Другие материалы по этой песне:
  • Аккорды и текст

Страница создана 27.07.2013
http://primanota.ru/a-c-acoustics/continuity-freak-chords.htm
Привет, Гость.
Предлагаем пройти революционный курс по гитаре.
Подарок от PrimaNota.Ru, забирай!