PrimaNota.ru - самый крупный в мире бесплатный архив песенных текстов, аккордов, табулатур и нот


A Brand - Hammerhead - таба, видео

Регистрация Запомнить меня
Войти через:  Facebook Google Twitter Vk Yandex Mail.ru

A Brand - Hammerhead - таба, видео

Печатать
Просмотров: 208
Artist: A Brand
Song: Hammerhead

Tabbed by Tomvdb

*The other tab wasn't very accurate so I decided to make a tab of how I play this crazy 
This is how I saw them playing it live*

Intro
(0:00)
Guitar 2,3 and Bass:

e|---------------------------------| (bass 8 times, Guitars 2 times)
B|---------------------------------| (Guitars can play power chords)
G|---------------------------------|
D|-0-------------------------------|
A|----------0----------------------|
E|--------------------0------------|

Guitar 1

e|-12p0-----10p0-12---------10p0---| (8 times, after 4 times + guitar 2)
B|-----10h12----0----0-10h12-----0-|
G|---------------------------------|
D|---------------------------------|
A|---------------------------------|
E|---------------------------------|

(0:15)
Guitar 3

e|---------15------17--------15-----19| (4 times)
B|---15-17----17-------15-17----17----|
G|------------------------------------|
D|------------------------------------|
A|------------------------------------|
E|------------------------------------|

(0:28)
Bass:

e|---------------------------------------| (4 times)
B|---------------------------------------|
G|---------------------------------------|
D|---------------------------------------|
A|---10---10---7---7---------------------|
E|-8----8----5---5---0000-0000-0000-0000-|

(0:55)
Bass:

e|------------------------------------------| (4 times)
B|------------------------------------------|
G|------------------------------------------|
D|-------------------------------------55-77|
A|---10---10---7---7-------------55-77------|
E|-8----8----5---5---00-33-55-88------------|

Guitar 2,3:  (3 times)

e|-------------------------------------------------------| (After 2 times
B|-15-----17-----15-----17-----15-----17-----19-----20---|  guitar 1 plays
G|-17b18--19b20--17b18--19b20--17b18--19b20--21b22--22b23|  intro again)
D|-------------------------------------------------------|
A|-------------------------------------------------------|
E|-------------------------------------------------------|

                                             4th time keep playing those
                                             last two
(1:20)
Bass, guitar 1,2,3 play intro again

(1:48)
Drums only

(2:00)
Bass:

e|---------------------------------------| (2 times)
B|---------------------------------------|
G|---------------------------------------|
D|---------------------------------------|
A|---10---10---7---7---------------------|
E|-8----8----5---5---0000-0000-0000-0000-|

(2:15)
Bass:

e|------------------------------------------| (4 times)
B|------------------------------------------|
G|------------------------------------------|
D|-------------------------------------55-77|
A|---10---10---7---7-------------55-77------|
E|-8----8----5---5---00-33-55-88------------|

Guitar 2,3:  (3 times)

e|-------------------------------------------------------| (After 2 times
B|-15-----17-----15-----17-----15-----17-----19-----20---|  guitar 1 plays
G|-17b18--19b20--17b18--19b20--17b18--19b20--21b22--22b23|  intro again)
D|-------------------------------------------------------|
A|-------------------------------------------------------|
E|-------------------------------------------------------|

                                             4th time keep playing those
                                             last two

(2:40)
Bass, guitar 1,2,3 play intro again (less times)

(3:20)
Bass, guitar 1,2 keep playing intro part
Guitar 3 joins with:

e|--------------|  (8 times)
B|19-----20-----|
G|21b22--22b23|
D|------------|
A|------------|
E|------------|

Outro:
(3:33)
Bass, guitar 2,3

e|---------------------------------|
B|---------------------------------|
G|---------------------------------|
D|-0-------------------------------|
A|----------0----------------------|
E|--------------------0------------|

Guitar 1

e|-12p0-----10p0-12---------10p0---|
B|-----10h12----0----0-10h12-----0-|
G|---------------------------------|
D|---------------------------------|
A|---------------------------------|
E|---------------------------------|
Добавлено: 24.04.2012
Другие материалы по этой песне:

Страница создана 24.04.2012
http://primanota.ru/a-brand/hammerhead-chords.htm
Привет, Гость.
Предлагаем пройти революционный курс по гитаре.
Подарок от PrimaNota.Ru, забирай!