PrimaNota.ru - самый крупный в мире бесплатный архив песенных текстов, аккордов, табулатур и нот


A Brand - Beauty Booty Killer Queen - таба, видео

Регистрация Запомнить меня
Войти через:  Facebook Google Twitter Vk Yandex Mail.ru

A Brand - Beauty Booty Killer Queen - таба, видео

Печатать
Просмотров: 185
artist: A Brand
Song: Beaty booty killer queen
album: Hammerhead
Tuning: Standard (EBGDAe)
tabbed by: Sam Braet (sampiebratsy@hotmail.com)

this is a great song from the belgian group 'A Brand'
this is my first tab, hope it's good
it sounds good to me.

any comments or corrections, feel free to mail me(sampiebratsy@hotmail.com)
(ik ben Belg, dus nederlands mag ook)

^ = bend
r = release bend
~ = vibrato

intro:
E------------|
B------------|
G--9-9---9-9-|  (x4)
D--9-9---9-9-|
A--7-7---7-7-|
e------------|


Verse:
E-----------------------------------------------------|
B-----------------------------------------------------|
G--9-9---9-9------9-9---9-9------9-9---9-9------7-----|
D--9-9---9-9------9-9---9-9------9-9---9-9------7---7-|
A--7-7---7-7------7-7---7-7------7-7---7-7------5---7-|
e---------------------------------------------------5-|
                                                ^   ^
                                               let ring
E------------|
B------------|
G--9-9---9-9-|  (x4)
D--9-9---9-9-|
A--7-7---7-7-|
e------------|


E-----------------------------------------------------|
B-----------------------------------------------------|
G--9-9---9-9------9-9---9-9------9-9---9-9------7-----|
D--9-9---9-9------9-9---9-9------9-9---9-9------7---7-|
A--7-7---7-7------7-7---7-7------7-7---7-7------5---7-|
e---------------------------------------------------5-|
                                                ^   ^
                                               let ring
E-------------          ------------|
B-------------          ------------|
G-------7-----          --7---------|
D--10---7---7-          --7---7---9-|              (x2)
A--10---5---7-          --5---7---9-|
e---8-------5-          ------5---7-|
            ^let ring             ^let ring


chorus:

(guitar 1)
E---------------------------------------------------------------------|
B---------------------------------------------------------------------|
G--9-9-9-9-9-9-9-9--7-7-7-7-7-7-7-7-----------------------------------|  (x2)
D--9-9-9-9-9-9-9-9--7-7-7-7-7-7-7-7--7-7-7-7-7-7-7-7--5-5-5-5-5-5-5-5-|
A--7-7-7-7-7-7-7-7--5-5-5-5-5-5-5-5--7-7-7-7-7-7-7-7--5-5-5-5-5-5-5-5-|
e------------------------------------5-5-5-5-5-5-5-5--3-3-3-3-3-3-3-3-|

(guitar 2)
E-----------------------------------------------------------------------|
B-----------------------------------------------------------------------|
G--9-9-9-9-9-9-9-9-9-9-9-9-9-9-9-9------9-9-9-9-9-9-9-9-9-9-9-9---11-12-| (x2)
D-----------------------------------------------------------------------|
A-----------------------------------------------------------------------|
e-----------------------------------------------------------------------|

verse:
E------------|
B------------|
G--9-9---9-9-|  (x8)
D--9-9---9-9-|
A--7-7---7-7-|
e------------|

E-------------          ------------|
B-------------          ------------|
G-------7-----          --7---------|
D--10---7---7-          --7---7---9-|
A--10---5---7-          --5---7---9-|
e---8-------5-          ------5---7-|
            ^let ring             ^let ring

chorus:
(guitar 1)
E---------------------------------------------------------------------|
B---------------------------------------------------------------------|
G--9-9-9-9-9-9-9-9--7-7-7-7-7-7-7-7-----------------------------------|  (x2)
D--9-9-9-9-9-9-9-9--7-7-7-7-7-7-7-7--7-7-7-7-7-7-7-7--5-5-5-5-5-5-5-5-|
A--7-7-7-7-7-7-7-7--5-5-5-5-5-5-5-5--7-7-7-7-7-7-7-7--5-5-5-5-5-5-5-5-|
e------------------------------------5-5-5-5-5-5-5-5--3-3-3-3-3-3-3-3-|

(guitar 2)
E-----------------------------------------------------------------------|
B-----------------------------------------------------------------------|
G--9-9-9-9-9-9-9-9-9-9-9-9-9-9-9-9------9-9-9-9-9-9-9-9-9-9-9-9---11-12-| (x2)
D-----------------------------------------------------------------------|
A-----------------------------------------------------------------------|
e-----------------------------------------------------------------------|


bridge:
E--12--12----12--12           --12-|
B--12--12----12--12           --12-|
G---9---9-----9---9   (x16)   ---9-|
D------------------           -----|
A------------------           -----|
e------------------           -----|


chorus:
(guitar 1)
E---------------------------------------------------------------------|
B---------------------------------------------------------------------|
G--9-9-9-9-9-9-9-9--7-7-7-7-7-7-7-7-----------------------------------|  (x2)
D--9-9-9-9-9-9-9-9--7-7-7-7-7-7-7-7--7-7-7-7-7-7-7-7--5-5-5-5-5-5-5-5-|
A--7-7-7-7-7-7-7-7--5-5-5-5-5-5-5-5--7-7-7-7-7-7-7-7--5-5-5-5-5-5-5-5-|
e------------------------------------5-5-5-5-5-5-5-5--3-3-3-3-3-3-3-3-|

(guitar 2)
E-----------------------------------------------------------------------|
B-----------------------------------------------------------------------|
G--9-9-9-9-9-9-9-9-9-9-9-9-9-9-9-9------9-9-9-9-9-9-9-9-9-9-9-9---11-12-| (x2)
D-----------------------------------------------------------------------|
A-----------------------------------------------------------------------|
e-----------------------------------------------------------------------|


this little solo-thingy is played while chorus repeats         E--|
B--15^-15^-15^-15-------------------------------------------------|r~  < release the bend and then vibrato
G-----------------------------------------------------------------|
D-----------------------------------------------------------------|       (x7)
A-----------------------------------------------------------------|
e-----------------------------------------------------------------|

end on:
E-------|
B--17^--|
G-------|
D-------|
A-------|
e-------|


that's it, not that hard, enjoy...
Добавлено: 02.05.2012
Вам также может быть интересно:
Другие материалы по этой песне:
  • Аккорды и текст

Страница создана 02.05.2012
http://primanota.ru/a-brand/beauty-booty-killer-queen-chords.htm
Привет, Гость.
Предлагаем пройти революционный курс по гитаре.
Подарок от PrimaNota.Ru, забирай!