PrimaNota.ru - самый крупный в мире бесплатный архив песенных текстов, аккордов, табулатур и нот


A Black Rose Burial - A Baleful Aura In The Graveyard Of Broken Gears - таба, видео

Регистрация Запомнить меня
Войти через:  Facebook Google Twitter Vk Yandex Mail.ru

A Black Rose Burial - A Baleful Aura In The Graveyard Of Broken Gears - таба, видео

Печатать
Просмотров: 202
A Black Rose Burial- A Baleful Aura..
This is from Chris himself, give the credit to him.
Tuning- A, E, A, E, G#, C#
Let's do this.

After intro..
-------------------------------------------------------------------|
----------------------------------------3----2---------------------|
--------------------------------------------------2----------------|
---------------------x6---[synth]----0000-1-00-1-00-1--------------|
-----777-555-----------------------0000---00---00------------------|
-3333-------333\11-0---------------0000---00---00------------------|
Double picking            . . . .        . .        . .

------------------14-------------|------14--9--------10-----------|
-6/14/13/14----1313---------------|--1313----88----99-------------|
------------12-------------------|-12---------7--8----------------|
-4/12/11/12-----------x4----------|-------------------------------|
---------------------------------|--------------------------------|
---------------------------------|--------------------------------|
                          2nd time through

                         All Double Picking
-17-|-------------------------------------------------------------|
-16-|-------------------------------------------------------------|
-15-|-------------------------------------------------------------|
----|-------------7777------------------1010-88-------------------|x3
----|--88-88-88-88----8888----77-77-7777--------------------------|
----|--00-00-00-00------------77-77-7777--------------------------|

-----------------------------------------------------------------|
-----------------------------------------------------------------|
-----------------------------------------------------------------|
------------77-55------------1010887788-------7755--------7788---|
-33-33-33-33---------88888888----------3333333----55555555-------|
-33-33-33-33---------00000000----------3333333----55555555-------|x2


---------------------------------------------------------------------|
---------------------------------------------------------------------|
---------------------------------------------------------------------|
-----------------|------------------------10101010--9  9  9  9-------|
-1~1~1~1~1~-2~1~-|--66665555---------2-1--11111111-10101010----------|
-0~0~0~0~0~-4~3~-|--0--------x2------4-3-----------------------------|x4

Heavy part..
---------------------------------|
---------------------------------|
---------------------------------|
---------------------------------|
-2-1-4-5-7-6-8-9-----------------|
-4-3-6-7-7-6-6-7-------x4--------|
  .   .    .    .   .    .   .   .

Clean
------------------------------------------------------------------|
------------------------------------------------------------------|
------------------------------------------------------------------|
---7-7h8p7-7-10p7-7h8p7-7---8--12\10-10--7-7\5-5------------------|
--8-8-----8------8-----8---8-8------8---3-3---3-------------------|
-0------------------------8------------3-----------------------x4-|

--------------------------------------------------------------------|
--------------------------------------------------------------------|
--------------------------------------------------------------------|
-----<7>-----<7>-----<12\10>-<10\8>-----77775555--------------------|
-888-<8>-888-<8>-888------------------333---------------------------|
-000------000-----888------------------333--------------------------|x4
   . . .               . . .             . . .          . . .

Fasstt part. double picked, you count how many times..
-----13-------13-------12-------12-------11--------11--------|
-12----13-12----13-11----12-11----12-10----11-10-----11-10---|
---13-------13-------12-------12-------11--------11----------|
-------------------------------------------------------------|
-------------------------------------------------------------|
-------------------------------------------------------------|

-------13-------12---------13-------14-------16------------|
---12----13-11----12---12----13-13----14-15----16----------|
-----13-------12---------13-------14-------16--------------|
-----------------------------------------------------------|
-00------------------00----------------------------00------|
-00------------------00----------------------------00------|
  . .                                            . .                              . .

-----999-----9999-----9999---8----17-16-16\-------------|
--------------------------------------------------------|
-----777-----7777-----7777---6----15-14-14\-------------|
--------------------------------------------------------|
-0000----0000-----0000----------------------------------|
-0000----0000-----0000----------------------------------|
  . . . .           . . . .             . . . .

--6666------6666-------------------------|
-----------------------------------------|
--4444------4444-------------------------|
-----------------------------------------|
------000000-----------------------------|
------000000-----------------------------|x3
              . . . . . .
                                                                        triple picked!!
--------|---------------------------------------------------------------|
--------|-----------------------------------------------17----17----17--|
--------|-----17----17----17----16----17----17----16--16----16----16----|
--------|---16----16----16----15----16----16----15--15----15----15------|
-1-1-1-1|-15----15----15----14----15----15----14------------------------|
-0-0-0-0|---------------------------------------------------------------|
   .   .   .   .
-------------17----17----16------|
-------16--16----16----15--------|
-----15--15----15----14----------|
---14----------------------------|
---------------------------------|
---------------------------------|

then after keyboards, double picked
----------------------------------------------------------------------|
---------8888--------------101010--------------5555------------5------|
-----7777----7777----101010------101010----7777----7777-555-057-7-----|5>
-9999------------8888------------------3333-------------555-----------|
-0000------------8888------------------3333-------------555-----------|x4

--------------------------------------------------------------|
--------------------------------------------------------------|
--------------------------------------------------------------|
--------------------------------------------------------------|
-99999999-88888888-33333333-55555555--------------------------|
-00000000-88888888-33333333-55555555--------------------------|x2
  . . . . . . . .    . . . . . . . .   . . . . . . . .    . . . . . . . .

"Hammer rolls"..
--------------------------------------------------------------|
--------------------------------------------------------------|
----7------5------7------7------3------3------5------5--------|
-057-75-057-75-078-87-078-87-035-53-035-53-057-75-057-75------|
--------------------------------------------------------------|
--------------------------------------------------------------|
Repeat till fade out
the end.
Добавлено: 12.05.2012
Вам также может быть интересно:
Другие материалы по этой песне:
  • Аккорды и текст

Страница создана 12.05.2012
http://primanota.ru/a-black-rose-burial/a-baleful-aura-in-the-graveyard-of-broken-gears-chords.htm
Привет, Гость.
Предлагаем пройти революционный курс по гитаре.
Подарок от PrimaNota.Ru, забирай!