PrimaNota.ru - самый крупный в мире бесплатный архив песенных текстов, аккордов, табулатур и нот


99radioservice - Youthful - аккорды и текст, видео

Регистрация Запомнить меня
Войти через:  Facebook Google Twitter Vk Yandex Mail.ru

99radioservice - Youthful - аккорды и текст, видео

Печатать
Просмотров: 423
Уроки эстрадного вокала в Санкт-Петербурге
Youthful
99radioservice
Song; YOUTHFUL by 99RadioService
Chihayafuru 1st Opening
Tabbed by Arvin Guinto 6/12/2013

  Hello, I tried tabbing it by ear so it's not that accurate but still
I hope u guys like it. If you have any suggestions or corrections
feel free to email me: arvin_cut3143@yahoo.com

Legends:

Pull Down = ^
Slide     = /

Normal Chords Used: marked with *

     EADGBe

C  = 032010
D  = 000232
Em = 022000

Power Chords Used:

     EADGBe

C  = x355xx
Am = 577xxx
G  = 3552xx
F  = 1332xx
Em7= x7978x
Dm7= x5756x
Bb = x133xx
Eb = x688xx


[Verse 1] Palmute (just listen to the song)

 C                       Am                        G
 Kaerimichi wa sugite iku sukoshi kaze ga fuite iru
                F               G
 Tawainai kaiwa myouni tanoshikute
 C                Am                         G
 Kidzuite shimatte joudan majiri kakikeshita
                   F                   G
 Sorezore no aruku michi wa betsubetsu to

[Pre-Chorus]

 Am     G      F         G                Am
 Ano toki egaita yume de afureta aojashin to
      G                F    G
 Mata chigau ashita demo iisa

[Chorus]

     C              Em7             Dm7
 Ima wa chihayafuru omoi mune ni daite
                   F         G
 Mezashita saki ni nani ga aru nda?
      C             Em7                 Dm7
 Imanara tsukame soude te o nobashite miru
                       F            G        C-F-Bb-F
 Yume no tochuu kitto itsuka mata aeru darou

 C-F-Bb-F

[Verse 2]

 C                   Am                        G
 Yuuyami ni terasarete nigeru you ni sugi tetta
                  F               G
 Hazukashii kurai ni massugu na hibi

[Pre-Chorus]

 Am     G         F           G                Am
 Ima demo kawaranai bokura machiawaseta ano basho
         G            F         G
 Kimi wa mada oboe teru no ka na

[Chorus]

     C                  Em7                 Dm7
 Itsumo me ni wa utsuranai koto ga taisetsu de
                     F     G
 Kimi to boku mo tsunagatteru nda
       C             Em7                 Dm7
 Akane no iro ni somaru kage wa nobite yuku
                F              G         (Eb)x12
 Yume no tochuu kitto itsuka mata aereba ii

e|-----------------------|-----------------------|-----------------------|
B|-----------------------|-----------------------|-------------------8^--|
G|--7---8---10---12(x12)-|--12---13--15--15(x12)-|-13--12--10--8(x8)-8^--|
D|--7---8---10---12(x12)-|--12---13--15--15(x12)-|-13--12--10--8(x8)-----|
A|--5---6---8----10(x12)-|--10---11--13--13(x12)-|-11--10--8---6(x8)-----|
E|-----------------------|-----------------------|-----------------------|

[Bridge] Palmute (just listen to the song)

 Am     G              F
 Soredemo ima wa waraeru
        G                Am
 Itsu demo iki o shite iru
               G             F     G
 Donna boku demo kokoni irukara

[Chorus]
      C               Am            F
 Ima mo chihayafuru omoi mune ni daita
         Em*        F    C*     D*     G
 Sore ga wakasa to waraitakya waraeba I
      C                Em7                   Dm7
 Boku wa kimi ga iru kara hashiri tsudzuke teru
                     F          G                C
 Kimi wa iu darou kitto sore wa boku mo onaji da to

[Outro] Lead and Rhythm play at the same time.

Lead
e||------------------------|-------------------|--------------------|
B||------------------------|-------------------|--------------------|
G||-5(x12)-4--5--7--9(x12)-|-9--10--12-12(x12)-|-10--9--7--5(x12)---|
D||-5(x12)-4--5--7--9(x12)-|-9--10--12-12(x12)-|-10--9--7--5(x12)---|
A||-3(x12)-2--3--5--7(x12)-|-7--8---10-10(x12)-|-8---7--5--3(x12)---|
E||------------------------|-------------------|--------------------|

 --------------------------|-------------------|------------------||
 --------------------------|-------------------|------------------||
 --4-/-5--7--9--5~ --------|-------------------|------------------||
 --4-/-5--7--9--5~ --------|-------------------|------------------||
 --2-/-3--5--7--3~ --------|-------------------|------------------||
 --------------------------|-------------------|------------------||

Rhythm guitar
C - A - F - G (repeats)

Official Website (JP)http://99radioservice.com/
Music Video http://www.youtube.com/watch?v=2dDD1hs3zHs
Добавлено: 30.08.2013
Другие материалы по этой песне:
  • Аккорды и текст

Страница создана 30.08.2013
http://primanota.ru/99radioservice/youthful-chords.htm
Привет, Гость.
Предлагаем пройти революционный курс по гитаре.
Подарок от PrimaNota.Ru, забирай!