PrimaNota.ru - самый крупный в мире бесплатный архив песенных текстов, аккордов, табулатур и нот


90lb Wuss - Sick And Youre Wrong - таба, видео

Регистрация Запомнить меня
Войти через:  Facebook Google Twitter Vk Yandex Mail.ru

90lb Wuss - Sick And Youre Wrong - таба, видео

Печатать
Просмотров: 133
		   Nintey Pound Wuss
Sick And You're Wrong
Tabbed By:Robbo
CD:Where The Meager Die Of Self Intrest

THis is the opening riff.

Repeat this about 4x
---------------I---------------------
---------------I---------------------
-------------*-I---------------------
6-6-6--2-3-4-*-I---------------------
6-6-6--2-3-4---I---------------------
4-4-4--0-1-2---I---------------------
THat means repeat.

THen the Chourus goes.

------------------------------
------------------------------
7-7-7-7-----------------------
7-7-7-7-9-9-9-9-5-5-5-3--3--3-
5-5-5-5-9-9-9-7-5-5-5-3--3--3-
--------7-7-7-7-3-3-3-1--1--1-
Then play with variations of that when he does the stop/start
thing. Email me at Sk8r4gsus@aol.com. 
     
Добавлено: 17.07.2013
Вам также может быть интересно:
Другие материалы по этой песне:
  • Аккорды и текст

Страница создана 17.07.2013
http://primanota.ru/90lb-wuss/sick-and-youre-wrong-chords.htm
Привет, Гость.
Предлагаем пройти революционный курс по гитаре.
Подарок от PrimaNota.Ru, забирай!