PrimaNota.ru - самый крупный в мире бесплатный архив песенных текстов, аккордов, табулатур и нот


90lb Wuss - Responsibility - таба, видео

Регистрация Запомнить меня
Войти через:  Facebook Google Twitter Vk Yandex Mail.ru

90lb Wuss - Responsibility - таба, видео

Печатать
Просмотров: 147
		   Artist: 90lb. Wuss      
Song: Responsibility
Album: Self-Titled
Tabbed by: Alex (QFZA82A@PRODIGY.COM
Copyright: Tooth and Nail Records

It pretty much starts out with this:

        A                 C#             D
|-------------------------------------------------------|
|-------------------------------------------------------|
|-2-2-2-2-2--6-6-6-6-6--7-7-7-7-7------------|
|-2-2-2-2-2--6-6-6-6-6--7-7-7-7-7------------|
|-0-0-0-0-0--4-4-4-4-4--5-5-5-5-5------------|
|-------------------------------------------------------|


Here is the bass part, i don't play a bass, but this sounds like it.


|--------------------------------------------------------------------
|
|-0-0-0-0-0--4-4-4-4-4-5-5-5-5-5-5-5-5-5---------------|
                                         OR
|-0-0-0-0-0--4-4-4-4-4-5-5-5-5-5-5-5-5-5---------------|
|--------------------------------------------------------------------
|




Then the guitar end's on the 'A' chord. This sound's pretty right. If 
someone has "Something must Break " from 90lb. Wuss please send to 
me! If you want to send input send to QFZA82A@PRODIGY.COM. 


     
Добавлено: 21.10.2013
Другие материалы по этой песне:
  • Аккорды и текст

Страница создана 21.10.2013
http://primanota.ru/90lb-wuss/responsibility-chords.htm
Привет, Гость.
Предлагаем пройти революционный курс по гитаре.
Подарок от PrimaNota.Ru, забирай!