PrimaNota.ru - самый крупный в мире бесплатный архив песенных текстов, аккордов, табулатур и нот


8 Kalacas - Santo - бас-таба, видео

Регистрация Запомнить меня
Войти через:  Facebook Google Twitter Vk Yandex Mail.ru

8 Kalacas - Santo - бас-таба, видео

Печатать
Просмотров: 148
Уроки эстрадного вокала в Санкт-Петербурге
Intro
|--------------------| X4
|--------2-1-----1-2-|
|-0------------------|
|--------------------|


Riff A
|------------------8----------| X8
|----7----------------8-8-9-9-|
|-0-----7-7-8-8-6-------------|
|-----------------------------|


Chorus
|---------------------------| X3  |--------------------------|
|------------2-1--1--1--1-2-|     |------------2-1--1--1--1--|
|-0--0--0--0----------------|     |-0--0--0--0---------------|
|---------------------------|     |--------------------------|


Riff A X8

Chorus X4


Riff B
|------------------------1----------------------------| X4
|-------------0-2---2--2---2-----------------5-----4--|
|-0---0--0-3-----------------2---2--2-2---3-----2-----|
|-----------------------------------------------------|


Riff B1
|----------7-8-9---9--9-9------------------------------------| X2
|-7---7--7------------------9---9-9--9-9--10-10-10---9-9-9-9-|
|------------------------------------------------------------|
|------------------------------------------------------------|


Bridge
|-----------------------------------------------------|
|-----------------------------------------------------|
|-------------------------5-------6---3-6-5---6-5-----|
|-5---5-5-3---3-3-6---6-6-------------------------6-5-|


|---------------------------------------------|
|---------------------------------------------|
|-----------------5-------6---3-6-5---6-5-----|
|-3---3-3-6---6---------------------------6-5-|



Riff C
|-------------------------------| X18
|-------------------------------|
|-------3-5---------3---5---5---|
|-3---3-----6---3---------6-----|


Riff C1
|----------------|
|----------------|
|-6--5-----------|
|-------6--3--5--|


Riff B X2


Riff B2
|----------7-8-9---9------------------------------|
|-7---7--7-------------9---9---10-10-10---9-9-9---|
|-------------------------------------------------|
|-------------------------------------------------|


Outro
|-----------------|
|-----------------|
|-----------------|
|-5--5----5--5-5\-|
Добавлено: 03.06.2013
Вам также может быть интересно:
Другие материалы по этой песне:
  • Аккорды и текст

Страница создана 03.06.2013
http://primanota.ru/8-kalacas/santo-chords.htm
Привет, Гость.
Предлагаем пройти революционный курс по гитаре.
Подарок от PrimaNota.Ru, забирай!