PrimaNota.ru - самый крупный в мире бесплатный архив песенных текстов, аккордов, табулатур и нот


8 Kalacas - Beach Blvd - таба, видео

Регистрация Запомнить меня
Войти через:  Facebook Google Twitter Vk Yandex Mail.ru

8 Kalacas - Beach Blvd - таба, видео

Печатать
Просмотров: 83
Уроки эстрадного вокала в Санкт-Петербурге
-------------------------------------------------------------------------------
                             Beach Blvd - 8 Kalacas
-------------------------------------------------------------------------------
Tabbed by: Pussy_Scavenger
E-mail: Raptor_jesus117@yahoo.com

First song I try to tab, so a lot of mistakes. Be gentle. Its ska so obviously the palm muting 
thing or whatever. It shouldn't be to hard figuring out the rhythm
  

Tuning: Standard 

e|-----44--4--4-----22--2--2-----44--4--4-----66--6--6-------------------------------------------|
B|-----44--4--4-----44--4--4-----55--5--5-----77--7--7-------------------------------------------|
G|-----44--4--4-----44--4--4-----66--6--6-----88--8--8-------------------------------------------|
D|-----66--6--6-----44--4--4-----66--6--6-----88--8--8-------------------------------------------|
A|-----66--6--6-----22--2--2-----44--4--4-----66--6--8-------------------------------------------|
E|-----44--6--6-----22--2--2-----44--4--4-----66--6--6-------------------------------------------|

e|-----44--4--4--4--4--4--4---0--0--0--0--0-----------------------------------------------------|
B|-----44--4--4--4--4--4--4---0--0--0--0--0-----------------------------------------------------|
G|-----44--4--4--4--4--4--4---1--1--1--1--1-----------------------------------------------------|
D|-----66--6--6--6--6--6--6---2--2--2--2--2---2-3-4-5-6----(2x)---------------------------------|
A|-----66--6--6--6--6--6--6---2--2--2--2--2---2-3-4-5-6-----------------------------------------|
E|-----44--4--4--4--4--4--6---0--0--0--0--0---0-1-2-3-4-----------------------------------------|



************************************

| /   slide up
| \   slide down
| h   hammer-on
| p   pull-off
| ~   vibrato
| +   harmonic
| x   Mute note
| b   Bend
| pb  Pre-bend
| br  Bend release
| pbr Pre-bend release
| brb Bend release bend

************************************
Добавлено: 21.06.2016
Другие материалы по этой песне:
  • Аккорды и текст

Страница создана 21.06.2016
http://primanota.ru/8-kalacas/beach-blvd-chords.htm
Привет, Гость.
Предлагаем пройти революционный курс по гитаре.
Подарок от PrimaNota.Ru, забирай!