PrimaNota.ru - самый крупный в мире бесплатный архив песенных текстов, аккордов, табулатур и нот


8 Kalacas - Adicto - таба, бас-таба, видео

Регистрация Запомнить меня
Войти через:  Facebook Google Twitter Vk Yandex Mail.ru

8 Kalacas - Adicto - таба, бас-таба, видео

Печатать
Просмотров: 104
Adicto by 8 Kalacas
tabbed by Fernando Piedra and AHHHHNOLD!

Standard Tuning

 e|------------------------------------------------------|
 B|------------------------------------------------------|
 G|------------------------------------------------------|
 D|-3-3--3--3--3-2~~~~~~~--3-3--3--3--3-2----------------|
 A|-3-3--3--3--3-2~~~~~~~--3-3--3--3--3-2----------------|
 E|-1-1--1--1--1-0~~~~~~~--1-1--1--1--1-0----------------|
PM..............           ............


  |------------------------------------------------------| \
  |------------------------------------------------------| |
  |------------------------------------------------------| |
  |-33-333-33-333-22-222-22-222--------------------------| |
  |-33-333-33-333-22-222-22-222---x3---------------------| |
  |-11-111-11-111-00-000-00-000--------------------------| |
PM.............................                            |
                                                           x3
                                                           |
  |------------------------------------------------------| |
  |------------------------------------------------------| |
  |-66-666-66-666-99-999-99-999--------------------------| |
  |-66-666-66-666-99-999-99-999--------------------------| |
  |-44-444-44-444-77-777-77-777--------------------------| |
  |------------------------------------------------------| /



  |------------------------------------------------------|
  |------------------------------------------------------|
  |------------------------------------------------------|
  |-3-3--3--3--3-2~~~~~~~--3-3--3--3--3-2----------------|
  |-3-3--3--3--3-2~~~~~~~--3-3--3--3--3-2----------------|
  |-1-1--1--1--1-0~~~~~~~--1-1--1--1--1-0----------------|
PM..............           ............


 
  |-8--8--x-8--x-8--x-8--x-8--x-8--8--8------------------|
  |-9--9--x-9--x-9--x-9--x-9--x-9--9--9------------------|
  |-10-10-x-10-x-10-x-10-x-10-x-10-10-10----x2-----------|
  |-10-10-x-10-x-10-x-10-x-10-x-10-10-10-----------------|
  |-8--8--x-8--x-8--x-8--x-8--x-8--8--8------------------|
  |------------------------------------------------------|


  |-4-4-x-4-4-4-x-4-4-4-x-4-4-4-x-1-1-x-1-1-1-x-1-1-1-x-1-1-1--------|
  |-6-6-x-6-6-6-x-6-6-6-x-6-6-6-x-2-2-x-2-2-2-x-2-2-2-x-2-2-2--------|
  |-6-6-x-6-6-6-x-6-6-6-x-6-6-6-x-3-3-x-3-3-3-x-3-3-3-x-3-3-3--------|
  |-6-6-x-6-6-6-x-6-6-6-x-6-6-6-x-3-3-x-3-3-3-x-3-3-3-x-3-3-3--------|
  |-4-4-x-4-4-4-x-4-4-4-x-4-4-4-x-1-1-x-1-1-1-x-1-1-1-x-1-1-1--------|
  |------------------------------------------------------------------|


  |-8--8--x-8--x-8--x-8--x-8--x-8--8--8------------------|
  |-9--9--x-9--x-9--x-9--x-9--x-9--9--9------------------|
  |-10-10-x-10-x-10-x-10-x-10-x-10-10-10----x2-----------|
  |-10-10-x-10-x-10-x-10-x-10-x-10-10-10-----------------|
  |-8--8--x-8--x-8--x-8--x-8--x-8--8--8------------------|
  |------------------------------------------------------|


  |-4-4-x-4-x-4-x-4-x-4-x-4-4-4-x-1-1-x-1-x-1-x-1-x-1-x-1-1-1--------|
  |-6-6-x-6-x-6-x-6-x-6-x-6-6-6-x-2-2-x-2-x-2-x-2-x-2-x-2-2-2--------|
  |-6-6-x-6-x-6-x-6-x-6-x-6-6-6-x-3-3-x-3-x-3-x-3-x-3-x-3-3-3--------|
  |-6-6-x-6-x-6-x-6-x-6-x-6-6-6-x-3-3-x-3-x-3-x-3-x-3-x-3-3-3--------|
  |-4-4-x-4-x-4-x-4-x-4-x-4-4-4-x-1-1-x-1-x-1-x-1-x-1-x-1-1-1--------|
  |------------------------------------------------------------------|


  |-8--8--x-8--x-8--x-7-7-x-7-x-7------------------------| \
  |-9--9--x-9--x-9--x-8-8-x-8-x-8------------------------| |
  |-10-10-x-10-x-10-x-9-9-x-9-x-9------------------------| |
  |-10-10-x-10-x-10-x-9-9-x-9-x-9---x3-------------------| |
  |-8--8--x-8--x-8--x-7-7-x-7-x-7------------------------| |
  |------------------------------------------------------| |
                                                           |
                                                           x2
                                                           |
  |------------------------------------------------------| |
  |------------------------------------------------------| |
  |-66666666-99999999------------------------------------| |
  |-66666666-99999999------------------------------------| |
  |-44444444-77777777------------------------------------| |
  |------------------------------------------------------| /


SOLO
  |-13~---------------------------------------------------------------|
  |----13~----------13-14--13-12--------------------------------------|
  |-------13~----13--------------13-13-12-13-15-15-15p13p12h13--------|
  |----------15~------------------------------------------------------|
  |-------------------------------------------------------------------|
  |-------------------------------------------------------------------|


  |------------------------------------------------------|
  |------------------------------------------------------|
  |-12p10--------8h10-13p12-13p12-10---------------------|
  |--------10h11-----------------------------------------|
  |------------------------------------------------------|
  |------------------------------------------------------|


  |-13~-------------13~-------------13~------------------------------|
  |----13~-------------13~-------------13~---------------------------|
  |-------13~-------------13~-------------13-15~--15-15-15p13p12-----|
  |----------15~-------------14~-------------------------------------|
  |------------------------------------------------------------------|
  |------------------------------------------------------------------|



  |------------------------------------------------------| \
  |------------------------------------------------------| |
  |-10----------------9----------------------------------| |
  |-10----------------9----------------------------------| |
  |-8--88888888888888-7-77777777777777-------------------| |
  |------------------------------------------------------| |
PM     ..............   ..............                     |  
                                                           x2
                                                           |
  |------------------------------------------------------| |
  |------------------------------------------------------| |
  |------------------------------------------------------| |
  |-11----------------8--------10------------------------| |
  |-11----------------8--------10------------------------| |
  |-9--99999999999999-6-666666-8--888888-----------------| /
PM     ..............   ......    ......
    

Bass Solo and Vocal Thing...

...then after that, end with this
  |-8--8--x-8--x-8--x-8--x-8--x-8--8--8------------------------------| \
  |-9--9--x-9--x-9--x-9--x-9--x-9--9--9------------------------------| |
  |-10-10-x-10-x-10-x-10-x-10-x-10-10-10----x2-----------------------| |
  |-10-10-x-10-x-10-x-10-x-10-x-10-10-10-----------------------------| |
  |-8--8--x-8--x-8--x-8--x-8--x-8--8--8------------------------------| |
  |------------------------------------------------------------------| |
                                                                       |
                                                                       x3
                                                                       |
  |-4-4-x-4-x-4-x-4-x-4-x-4-4-4-x-1-1-x-1-x-1-x-1-x-1-x-1-1-1--------| |
  |-6-6-x-6-x-6-x-6-x-6-x-6-6-6-x-2-2-x-2-x-2-x-2-x-2-x-2-2-2--------| |
  |-6-6-x-6-x-6-x-6-x-6-x-6-6-6-x-3-3-x-3-x-3-x-3-x-3-x-3-3-3--------| |
  |-6-6-x-6-x-6-x-6-x-6-x-6-6-6-x-3-3-x-3-x-3-x-3-x-3-x-3-3-3--------| |
  |-4-4-x-4-x-4-x-4-x-4-x-4-4-4-x-1-1-x-1-x-1-x-1-x-1-x-1-1-1--------| |
  |------------------------------------------------------------------| /

  |-8~~~~------------------------------------------------|
  |-9~~~~------------------------------------------------|
  |-10~~~------------------------------------------------|
  |-10~~~------------------------------------------------|
  |-8~~~~------------------------------------------------|
  |------------------------------------------------------|
Добавлено: 08.12.2013
Другие материалы по этой песне:
  • Аккорды и текст

Страница создана 09.09.2013
http://primanota.ru/8-kalacas/adicto-chords.htm
Привет, Гость.
Предлагаем пройти революционный курс по гитаре.
Подарок от PrimaNota.Ru, забирай!