PrimaNota.ru - самый крупный в мире бесплатный архив песенных текстов, аккордов, табулатур и нот


8 Foot Sativa - Grown Aggression - таба, видео

Регистрация Запомнить меня
Войти через:  Facebook Google Twitter Vk Yandex Mail.ru

8 Foot Sativa - Grown Aggression - таба, видео

Печатать
Просмотров: 191
Авторы: Justin Niessen, Gary Smith

Tuning: Drop B [B F# B E G# C# low to high] 
Time: 4 
      4            3 
Special notation: <^> = triplet 

Intro 
 1       2       3       4       |1       2       3       4       | 
|--------------------------------|--------------------------------| 
|--------------------------------|--------------------------------| 
|7---7-7-13--1312--1213--12--10--|7---7-7-13--1312----13--12--10--| 
|7---7-7-13--1312--1213--12--10--|7---7-7-13--1312----13--12--10--| 
|5---5-5-11--1110--1011--10--8---|5---5-5-11--1110----11--10--8---| 
|--------------------------------|--------------------------------| \ 

|--------------------------------|--------------------------------|  x2 
|--------------------------------|--------------------------------| 
|7---7-7-13--1312----13--12--10--|7---7-7-13--1312--1213--12--10--| / 
|7---7-7-13--1312----13--12--10--|7---7-7-13--1312--1213--12--10--| 
|5---5-5-11--1110----11--10--8---|5---5-5-11--1110--1011--10--8---| 
|--------------------------------|--------------------------------| 

|--------------------------------|--------------------------------| 
|--------------------------------|--------------------------------| 
|--------------------------------|--------------------------------| 
|0---0-0-6---6-5---5-6---5---3---|0---0-0-6---6-5-----6---5---3---| 
|0---0-0-6---6-5---5-6---5---3---|0---0-0-6---6-5-----6---5---3---| 
|0---0-0-6---6-5---5-6---5---3---|0---0-0-6---6-5-----6---5---3---| \ 

|--------------------------------|--------------------------------|  x2 
|--------------------------------|--------------------------------| 
|--------------------------------|--------------------------------| / 
|0---0-0-6---6-5-----6---5---3---|0---0-0-6---6-5---5-6---5---3---| 
|0---0-0-6---6-5-----6---5---3---|0---0-0-6---6-5---5-6---5---3---| 
|0---0-0-6---6-5-----6---5---3---|0---0-0-6---6-5---5-6---5---3---| 

Song 
 1       2       3       4       |1       2       3       4       | 
|--------------------------------|--------------------------------| 
|--------------------------------|--------------------------------| 
|7----3---3---3---3---3---3------|7----3---3---3---3---3---3------| 
|7---<^>-<^>-<^>-<^>-<^>-<^>-8---|7---<^>-<^>-<^>-<^>-<^>-<^>-6---| x4 
|5---555-555-555-555-555-555-6---|5---555-555-555-555-555-555-6---| 
|--------------------------------|----------------------------6---| 

|--------------------------------|--------------------------------| 
|--------------------------------|--------------------------------| 
|7-------~-------10--------------|7-------~-------5-------~-------| 
|7-------~-------10----6-~-------|7-------~-------5-------~-0-6-5-| x4 
|5-------~-------8-----6-~-------|5-------~-------3-------~-0-6-5-| 
|----------------------6-~-------|--------------------------0-6-5-| 
                                                            PM... 

|--------------------------------|    |--------------------------------| 
|--------------------------------|    |--------------------------------| 
|--------------------------------|    |--------------------------------| 
|----------------------------6---| x4 |----8-7---7-8-7---7-8-7(7-7)6---| x4 
|----------------------------6---|    |----6-5---5-6-5---5-6-5(5-5)6---| 
|000-3-0-0-003-0-0-003-0-3-0-6---|    |000---------------------0-0-6---| 
                                                               PM. 
Fourth time, chop off 666 & go straight into this 

|--------------------------------|--------------------------------| 
|--------------------------------|--------------------------------| 
|--------------------------------|--------------------------------| 
|hp------7-----------------------|hp------7-----------------------| 
|565-5-5---5---5---5-5-5-6p5-----|565-5-5---5---5---5-5-5-6p5-----| 
|----------------------------6---|----------------------------6---| 
     PM.             . .              . .             . . 

|--------------------------------|--------------------------------| 
|--------------------------------|--------------------------------| 
|--------------------------------|--------------------------------| 
|hp------7-----------------------|hp------7-----------------------| 
|565-5-5---5---5---5-5-5-6p5-8---|565-5-5---5---5---5-5-5-6p5-3---| 
|--------------------------------|--------------------------------| 
     PM.             . .              . .             . .           \ 

|--------------------------------|--------------------------------|  x4 
|--------------------------------|--------------------------------| 
|--------------------------------|--------------------------------| / 
|hp------7-----------------------|hp------7---------7-6-5---------| 
|565-5-5---5---5---5-5-5-6p5-3---|565-5-5---5---5---------6-6-5-6-| 
|--------------------------------|--------------------------------| 
     PM.             . .                            . . . . . . . 

Repeat whole 'Song' section 

Outro (same as 'Intro') (first time through second line from the top, pause instead of
final three chords) 

End with another 000 

Notes: • x355 in second line of 'Song' section is sometimes given artifical harmonics
that I can't be fucked working out 
       • not sure of the PM'd bit at end of tab notation, but it's something along
those lines

BIG CREDITS to Sykotic_x of intergalatic forum for figuring this out just passin
it on to other people dude
Добавлено: 03.06.2012
Другие материалы по этой песне:

Страница создана 01.04.2012
http://primanota.ru/8-foot-sativa/grown-aggression-chords.htm
Привет, Гость.
Предлагаем пройти революционный курс по гитаре.
Подарок от PrimaNota.Ru, забирай!