PrimaNota.ru - самый крупный в мире бесплатный архив песенных текстов, аккордов, табулатур и нот


764 Hero - Calendar Pages - таба, видео

Регистрация Запомнить меня
Войти через:  Facebook Google Twitter Vk Yandex Mail.ru

764 Hero - Calendar Pages - таба, видео

Печатать
Просмотров: 100
Уроки эстрадного вокала в Санкт-Петербурге
-------------------------------------------------------------------------------
                             CALANDER PAGES - 764-Hero
-------------------------------------------------------------------------------
Tabbed by: nolanwalker93
E-mail: nolanwalker93@gmail.com

Tuning: Standard

Super easy song to pick up and play. This is only a tab for the lead guitar. Amount of 
strums may be off,
but you'll get the general idea, listen to the song to get the timing and such.

Intro/Interlude:

e|---------------------------------------------------------------------------|
B|---------------------------------------------------------------------------|
G|-9-9-9-9/8-8-8-8-8/6-6-6-6-6/4-4-4-4-4/6------4----4-4/6-------------------|
D|-9-9-9-9/8-6-8-8-8/6-6-6-6-6/4-4-4-4-4/6------4----4-4/6-------------------|
A|-7-7-7-7/6-6-6-6-6/4-4-4-4-4/2-2-2-2-2/4------2----2-2/4-------------------|
E|---------------------------------------------------------------------------|

Verse:

e|---------------------------------------------------------------------------|
B|---------------------------------------------------------------------------|
G|-4-4-4-4/6-6-6-6-6---------------------------------------------------------|
D|-4-4-4-4/6-6-6-6-6-6-6-6-6/7-7-7-7-7-7-6----6-6-6/7--7-7-7-7-7-7-----------|
A|-2-2-2-2/4-4-4-4-4-6-6-6-6/7-7-7-7-7-7-6----6-6-6/7--7-7-7-7-7-7-----------|
E|-------------------4-4-4-4/5-5-5-5-5-5-4----4-4-4/5--5-5-5-5-5-5-----------|

Chorus:

e|---------------------------------------------------------------------------------|
B|---------------------------------------------------------------------------------|
G|-9/8-8-8-8-8/6-6-6-6-6/4-4-4-4-4/6-6-6-6-6/11-11-11-11-11/13-13-13-13/9-9-9-9-9--|
D|-9/8-8-8-8-8/6-6-6-6-6/4-4-4-4-4/6-6-6-6-6/11-11-11-11-11/13-13-13-13/9-9-9-9-9--|
A|-7/6-6-6-6-6/4-4-4-4-4/2-2-2-2-2/4-4-4-4-4/9--9--9--9--9/-11-11-11-11/7-7-7-7-7--|
E|---------------------------------------------------------------------------------|

Variation at Outro:

e|--------------------------------------------------------------------------------------|
B|--------------------------------------------------------------------------------------|
G|-9/8-8-8-8-8/6-6-6-6-6/4-4-4-4-4/6-6-6-6-6/11-11-11-11-11/13-13-13-13/11/9-9-11/9-9-9-|
D|-9/8-8-8-8-8/6-6-6-6-6/4-4-4-4-4/6-6-6-6-6/11-11-11-11-11/13-13-13-13/11/9-9-11/9-9-9-|
A|-7/6-6-6-6-6/4-4-4-4-4/2-2-2-2-2/4-4-4-4-4/9--9--9--9--9-/11-11-11-11/9-/7-7-9-/7-7-7-|
E|--------------------------------------------------------------------------------------|

Order in which these parts happen:

Intro X 2
Verse X 2
Interlude X 2
Verse X 2
Chorus X 4
Interlude X 2
Verse X 2
Chorus X 2
Outro X 2

************************************

| \   slide

************************************
Добавлено: 05.08.2015
Вам также может быть интересно:
Другие материалы по этой песне:
  • Аккорды и текст

Страница создана 05.08.2015
http://primanota.ru/764-hero/calendar-pages-chords.htm
Привет, Гость.
Предлагаем пройти революционный курс по гитаре.
Подарок от PrimaNota.Ru, забирай!