PrimaNota.ru - самый крупный в мире бесплатный архив песенных текстов, аккордов, табулатур и нот


7 Year Bitch - Disillusion - таба, видео

Регистрация Запомнить меня
Войти через:  Facebook Google Twitter Vk Yandex Mail.ru

7 Year Bitch - Disillusion - таба, видео

Печатать
Просмотров: 47
-------------------------------------------------------------------------------
                          Disillusion - 7 Year Bitch
-------------------------------------------------------------------------------

From the album 'Gato Negro'

Tabbed by: Ricky Thomson
E-mail: warzone@gmx.co.uk

Tuning: Drop D


intro  [x1]
verse  [x1]
chorus [x4]
verse  [x1]
bridge [x1]
chorus [x4]
outro  [x1]

-------------------------------------------------------------------------------


[intro]

e|-----------------------------------|
B|-----------------------------------|
G|-----------------------------------|
D|--/-/-7-7-7-7-7-7-7-7-7-7-7-7-7-7--|
A|--/-/-5-5-5-5-5-5-5-5-5-5-5-5-5-5--|
D|------0-0-0-0-0-0-0-0-0-0-0-0-0-0--|

e||-----------------------------------||
B||-----------------------------------||
G||-----------------------------------|| x2
D||--7-7-7-7-7-7-7-7-7-7-7-7-7-7-7-7--||
A||--5-5-5-5-5-5-5-5-5-5-5-5-5-5-5-5--||
D||--0-0-0-0-0-0-0-0-0-0-0-0-0-0-0-0--||


[verse]

e||---------------------------||
B||---------------------------||
G||---------------------------||
D||--0---3---4---0-5---0-4----|| x2
A||--0---3---4---0-5---0-4----||
D||--0---3---4---0-5---0-4----||

e||-----------------------------------------------------------||
B||-----------------------------------------------------------||
G||-----------------------------------------------------------||
D||----------------------------------0---3---4---0-5---0-4----|| x3
A||--5-5-5-5-5-5-5-5-5-5-5-5-5-5-0h5-0---3---4---0-5---0-4----||
D||----------------------------------0---3---4---0-5---0-4----||


[chorus]

e|-----------------------------------|
B|-----------------------------------|
G|--4-4-4-4-4-4-4-4-5-5-5-5-5-5-5-5--|
D|--0-0-0-0-0-0-0-0-0-0-0-0-0-0-0-0--|
A|-----------------------------------|
D|-----------------------------------|

e|-----------------------------------|
B|-----------------------------------|
G|--7-7-7-7-7-7-7-7-7-7-7-7-7-7-7-7--|
D|--7-7-7-7-7-7-7-7-7-7-7-7-7-7-7-7--|
A|--5-5-5-5-5-5-5-5-5-5-5-5-5-5-5-5--|
D|-----------------------------------|


[bridge]

e|-----------------------------------|
B|-----------------------------------|
G|--7--------------------------------|
D|--7--------------------------------|
A|--5--------------------------------|
D|-----------------------------------|

e|-----------------------------------|
B|-----------------------------------|
G|--4-/-5-\-2------------------------|
D|-----------------------------------|
A|-----------------------------------|
D|-----------------------------------|

e|-----------------------------------|
B|-----------------------------------|
G|--4-/-5-/-9------------------------|
D|-----------------------------------|
A|-----------------------------------|
D|-----------------------------------|

e|-----------------------------------|
B|-----------------------------------|
G|--9-/-7-/-2------------------------|
D|-----------------------------------|
A|-----------------------------------|
D|-----------------------------------|

e|-----------------------------------|
B|-----------------------------------|
G|-----------------------------------|
D|----0---0----0---------------------|
A|--0-0-0-0-0--0-0--0-0--------------|
D|--0-0-0-0-0--0-0--0-0--------------|

e|-----------------------------------|
B|-----------------------------------|
G|-----------------------------------|
D|-----------------------------------|
A|-----------------------------------|
D|--0--------------------------------|

(there's a bass fill for a few bars followed by this note)
e|-----------------------------------|
B|-----------------------------------|
G|-----------------------------------|
D|-----------------------------------|
A|--5--------------------------------|
D|-----------------------------------|

e||---------------------------||
B||---------------------------||
G||---------------------------||
D||--0---3---4---0-5---0-4----|| x4
A||--0---3---4---0-5---0-4----||
D||--0---3---4---0-5---0-4----||


[outro]

e||---------------------------||
B||---------------------------||
G||---------------------------||
D||--0---3---4---0-5---0-4----|| x8
A||--0---3---4---0-5---0-4----||
D||--0---3---4---0-5---0-4----||

e|-----------------------------------|
B|-----------------------------------|
G|-----------------------------------|
D|--0--------------------------------|
A|--0--------------------------------|
D|--0--------------------------------|



************************************
| /   slide up
| \   slide down
| h   hammer-on
| p   pull-off
| ~   vibrato
| +   harmonic
| x   Mute note
| b   Bend
| pb  Pre-bend
| br  Bend release
| pbr Pre-bend release
| brb Bend release bend

************************************
Добавлено: 12.06.2016
Другие материалы по этой песне:
  • Аккорды и текст

Страница создана 12.06.2016
http://primanota.ru/7-year-bitch/disillusion-chords.htm
Привет, Гость.
Предлагаем пройти революционный курс по гитаре.
Подарок от PrimaNota.Ru, забирай!