PrimaNota.ru - самый крупный в мире бесплатный архив песенных текстов, аккордов, табулатур и нот


7 Birches - Somnus - таба, видео

Регистрация Запомнить меня
Войти через:  Facebook Google Twitter Vk Yandex Mail.ru

7 Birches - Somnus - таба, видео

Печатать
Просмотров: 107
-------------------------------------------------------------------------------
                             Somnus - 7 Birches
-------------------------------------------------------------------------------
Tabbed by:
Joseph Murphy

Tuning:Drop D DADGBE

Intro

e|------------------------------------------------------------------------------------------------------|
B|------------------------------------------------------------------------------------------------------|
G|-------------10-----8------------------8-----6------------------6------5-----------------8-----6------|
D|-------11--------------11--------10-------------10--------8---------------8--------10-------------10--|
A|----8-----8-------------------6-----6------------------4-----4------------------6-----6---------------|
D|-8--------------8----------6--------------6---------4--------------4---------6--------------6---------|

What's the sense in getting out of bed just to repeat the same routines again......

e|--------------------------|
B|--------------------------|
G|-10----8-----6----8-------|
D|-11-x8-10-x8-8-x8-10-x10--|x3
A|-8-----6-----4----6-------|
D|-8-----6-----4----6-------|

The corners slip off the edge. The loose sheet wraps around my head. Wake up to notice it's displaced.....

The strumming pattern is simple here just 5 then a 7 in eighth notes (if that makes sense)
listen to the song

e|------------------------------------------------------------|
B|------------------------------------------------------------|
G|-10------------8--------6--------10-------------------------|
D|-11------------10-------8--------11-------------------------| x2
A|-8--x5-then-x7-6--x5-x7-4--x5-x7-8--x5-x7-------------------|
D|-8-------------6--------4--------8--------------------------|

So..........      (Just when Jake says "Just let me lay here")      

e|---------------|-------------------------------------------------------------|
B|---------------|-------------------------------------------------------------|
G|---------------|-------------------------------------------------------------|
D|-8---11--4--6--|-8----11----4----6-------------------------------------------|
A|-8---11--4--6--|-8-x4-11-x4-4-x4-6-x4----------------------------------------|
D|-8---11--4--6--|-8----11----4----6-------------------------------------------|

Whole Band: Just let me lay here, don't wake me up don't wake me up.
Just let me lay here, I've had enough I've had enough. 

e|---------------------------|
B|---------------------------|
G|---------------------------|
D|-8-------------------------|
A|-8---yep-just-this-chord---|
D|-8-------------------------|

After that part with the one chord they are still singing "Just let me lay here" 

e|-----------------------|
B|-----------------------|
G|-----------------------|
D|-8----11----4----6-----|
A|-8-x4-11-x4-4-x4-6-x4--|
D|-8----11----4----6-----|

Sometimes some sleep is all you need.........
I couldn't find out this part that well so if you can please put it in the comments :D

e|---------------| This is just the chords I think Jake 
B|---------------| is playing, so I just pick notes in
G|-6--8---10-----| the chord that sound like the song.
D|-8--10--11-----| Sorry I couldn't find it out.
A|-4--6---8------|
D|-4--6---8------|



************************************

| /   slide up
| \   slide down
| h   hammer-on
| p   pull-off
| ~   vibrato
| +   harmonic
| x   Mute note
| b   Bend
| pb  Pre-bend
| br  Bend release
| pbr Pre-bend release
| brb Bend release bend

************************************
Добавлено: 15.08.2015
Другие материалы по этой песне:
  • Аккорды и текст

Страница создана 15.08.2015
http://primanota.ru/7-birches/somnus-chords.htm
Привет, Гость.
Предлагаем пройти революционный курс по гитаре.
Подарок от PrimaNota.Ru, забирай!