PrimaNota.ru - самый крупный в мире бесплатный архив песенных текстов, аккордов, табулатур и нот


7-10 Split - Grind Core Kid - таба, видео

Регистрация Запомнить меня
Войти через:  Facebook Google Twitter Vk Yandex Mail.ru

7-10 Split - Grind Core Kid - таба, видео

Печатать
Просмотров: 297
Intro
E-------------------------------------------------------------------|
B-------------------------------------------------------------------|
G-------------------------------------------------------------------|
D—9—-9-9-9-9-9-9----------------------------------------------------|
A-7—-7-7-7-7-7-7---9—-9-9-9-9-9-9---7—-7-7-7-7-7-7---9—-9-9-9-9-9-9-|
E------------------7—-7-7-7-7-7-7---7—-7-7-7-7-7-7---7—-7-7-7-7-7-7-|
Play a couple of times

E-------------------------------------------------------|
B-------------------------------------------------------|
G-------------------------------------------------------|
D-9-9---9-9-9-------------------------------------------|
A-7-7---7-7-7---9-9---9-9-9---7-7---7-7-7---9-9---9-9-9-|
E---------------7-7---7-7-7---5-5---5-5-5---7-7---7-7-7-|
Play a couple of times then go back to intro

Then
E----------------------------------------------------|
B----------------------------------------------------|
G----------------------------------------------------|
D----------------------------------------------------|
A----------------------------------------------------|
E-0-0-0-0—1---0-0-0-0-3-1---0-0-0-0-1---0-0-0-0-3-1--|
  Palm mute the 0's

E----------------------------------------------------|
B----------------------------------------------------|
G----------------------------------------------------|
D----------------------------------------------------|
A---------1-----------3-1-----------1-----------3-1--|
E-0-0-0-0-1---0-0-0-0-3-1---0-0-0-0-1---0-0-0-0-3-1--|

Back to the beginning play the first 2 parts and play a couple of times

Ending
E---------------------------------------------------------|
B---------------------------------------------------------|
G---------------------------------------------------------|
D--------------------2-2-2-2------------------------------|
A-2-2-2-2---3-3-3-3-----------3-3-3-3---2---2---3------2--|
E--------------------------------------------------1---0--|

http://www.7-10split.org/
Добавлено: 22.03.2012
Другие материалы по этой песне:
  • Аккорды и текст

Страница создана 22.03.2012
http://primanota.ru/7-10-split/grind-core-kid-chords.htm
Привет, Гость.
Предлагаем пройти революционный курс по гитаре.
Подарок от PrimaNota.Ru, забирай!