PrimaNota.ru - самый крупный в мире бесплатный архив песенных текстов, аккордов, табулатур и нот


68 - Track 1 R - таба, видео

Регистрация Запомнить меня
Войти через:  Facebook Google Twitter Vk Yandex Mail.ru

68 - Track 1 R - таба, видео

Печатать
Просмотров: 246
-------------------------------------------------------------------------------
                             Track 1 R - '68
-------------------------------------------------------------------------------

Tuning: EADGBE

Gear: Since Josh plays out of a bass cabinet to get his tone and I didn't have one readily available,
I found a good way to get close to his tone was to put a bass overdrive pedal before my amps gain channel,
super dirty super bassy feel.

Tips: There's a "sloppy" way to play this that makes it sound more like the recording, you'll have to
experiment, these tabs are just a start for you. 


e|---------------------------------------------------------------------------|
B|---------------------------------------------------------------------------|
G|---------------------------------------------------------------------------|
D|---------------------------------------------------------------------------|
A|---2-------------2------------------2--------------2-----------------------|
E|3---3-2-0--0-2-3---3-2-0-----3--3-3---3-2-0--0-2-3---3-2-0-----------------|

e|---------------------------------------------------------------------------|
B|---------------------------------------------------------------------------|
G|---------------------------------------------------------------------------|
D|---------------------------------------------------------------------------|
A|--------2--------------2-----------------2--------------2------------------|
E|-3--3-3---3-2-0--0-2-3---3-2-0----3--3-3---3-2-0--0-2-3---3-2-0------------|



Verse (just make feedback noises)



e|---------------------------------------------------------------------------|
B|---------------------------------------------------------------------------|
G|---------------------------------------------------------------------------|
D|---------------------------------------------------------------------------|
A|---2-------------2------------------2--------------2-----------------------|
E|3---3-2-0--0-2-3---3-2-0-----3--3-3---3-2-0--0-2-3---3-2-0-----------------|

e|---------------------------------------------------------------------------|
B|---------------------------------------------------------------------------|
G|---------------------------------------------------------------------------|
D|---------------------------------------------------------------------------|
A|--------2--------------2-----------------2--------------2------------------|
E|-3--3-3---3-2-0--0-2-3---3-2-0----3--3-3---3-2-0--0-2-3---3-2-0------------|



Verse (just make feedback noises)


e|---------------------------------------------------------------------------|
B|---------------------------------------------------------------------------|
G|---------------------------------------------------------------------------|
D|---------------------------------------------------------------------------|
A|---2-------------2------------------2--------------2-----------------------|
E|3---3-2-0--0-2-3---3-2-0-----3--3-3---3-2-0--0-2-3---3-2-0-----------------|

e|---------------------------------------------------------------------------|
B|---------------------------------------------------------------------------|
G|---------------------------------------------------------------------------|
D|---------------------------------------------------------------------------|
A|--------2--------------2-----------------2--------------2------------------|
E|-3--3-3---3-2-0--0-2-3---3-2-0----3--3-3---3-2-0--0-2-3---3-2-0------------|


e|---------------------------------------------------------------------------|
B|---------------------------------------------------------------------------|
G|---------------------------------------------------------------------------|
D|---------------------------------------------------------------------------|
A|-222-222-222-222-44-55-2-22222222222222------------------------------------|
E|-333-000-333-000-55-66-3-33333333333333------------------------------------|


e|------------------------|
B|------------------------|
G|------------3333-4444---|
D|--4-444440--3333-4444---| 4x
A|--4-444440--1111-2222---|
E|--2-222220--------------|

e|------------------------|
B|------------------------|
G|------------6666-7777---|
D|--7-777770--6666-7777---| 4x
A|--7-777770--4444-5555---|
E|--5-555550--------------|

e|------------------------|
B|------------------------|
G|------------------------|
D|-444-555-666-777-88-99--| 4x
A|-444-555-666-777-88-99--|
E|-222-333-444-555-66-77--|


Feedback


       . .       .
e|-----------------------------|      
B|-----------------6p0---------|
G|-----6-7-------------6b(7)---|
D|--/7-----5p0--/7-------------| 3x
A|-----------------------------|
E|-----------------------------|

       . .       . . .
e|-----------------------------|
B|-----------------------------|
G|-----6-7---------------------|
D|--/7-----5p0--/9-8-7---------|
A|-----------------------------|
E|-----------------------------|

       . .       .
e|-----------------------------|      
B|-----------------6p0---------|
G|-----6-7-------------6b(7)---|
D|--/7-----5p0--/7-------------| 3x
A|-----------------------------|
E|-----------------------------|

       . .       . . .
e|-----------------------------|
B|-----------------------------|
G|-----6-7---------------------|
D|--/7-----5p0--/9-8-7---------|
A|-----------------------------|
E|-----------------------------|


e|---------------------------------------------------------------------------|
B|---------------------------------------------------------------------------|
G|---------------------------------------------------------------------------|
D|---------------------------------------------------------------------------|
A|---2-------------2------------------2--------------2-----------------------|
E|3---3-2-0--0-2-3---3-2-0-----3--3-3---3-2-0--0-2-3---3-2-0-----------------|


e|---------------------------------------------------------------------------|
B|---------------------------------------------------------------------------|
G|---------------------------------------------------------------------------|
D|---------------------------------------------------------------------------|
A|--------2--------------2-----------------2--------------2------------------|
E|-3--3-3---3-2-0--0-2-3---3-2-0----3--3-3---3-2-0--0-2-3---3-2-0------------|
Repeat until song ends

************************************

| /   slide up
| \   slide down
| h   hammer-on
| p   pull-off
| ~   vibrato
| +   harmonic
| x   Mute note
| b   Bend
| pb  Pre-bend
| br  Bend release
| pbr Pre-bend release
| brb Bend release bend

************************************
Добавлено: 06.08.2015
Другие материалы по этой песне:
  • Аккорды и текст

Страница создана 06.08.2015
http://primanota.ru/68/track-1-r-chords.htm
Привет, Гость.
Предлагаем пройти революционный курс по гитаре.
Подарок от PrimaNota.Ru, забирай!