PrimaNota.ru - самый крупный в мире бесплатный архив песенных текстов, аккордов, табулатур и нот


6 Voltios - Lucas - бас-таба, видео

Регистрация Запомнить меня
Войти через:  Facebook Google Twitter Vk Yandex Mail.ru

6 Voltios - Lucas - бас-таба, видео

Печатать
Просмотров: 243
Intro

G|---------------------------------------------------|
D|---------------------------------------------------|
A|--99999999--------66666666-------------------------|
E|----------99999999--------77777777-----------------| x2

Verso / Solo

PD: son números enteros osea 11 10 12 13 ,etc

G|--------------10111315131110---1516--1516---1416--1618-----------|
D|----898-898-11---------------13----13-----14----16---------------|
A|---9---9---------------------------------------------------------|
E|-----------------------------------------------------------------| x2

Coro

G|----------------------------------------------------------------------|
D|----------------------------------------------------------------------|
A|--99999999--------66666666-----------------999999999--------999810----|
E|----------99999999--------66666666677777777---------99999999----------|

Intro

G|---------------------------------------------------|
D|---------------------------------------------------|
A|--99999999--------66666666-------------------------|
E|----------99999999--------77777777-----------------| x2

Verso / Solo

G|--------------10111315131110---1516--1516---1416--1618-----------|
D|----898-898-11---------------13----13-----14----16---------------|
A|---9---9---------------------------------------------------------|
E|-----------------------------------------------------------------| x2

Coro

G|----------------------------------------------------------------------|
D|----------------------------------------------------------------------|
A|--99999999--------66666666-----------------999999999--------999810----|
E|----------99999999--------66666666677777777---------99999999----------| x2

Breakdown

G|-------------------------------------------------------------------|
D|-------------------------------------------------------------------|
A|--9999999999999999----------------6666666666666666-----------------|
E|------------------9999999999999999----------------6666666677777777-| x2

Verso / Solo

G|--------------10111315131110---1516--1516---1416--1618-----------|
D|----898-898-11---------------13----13-----14----16---------------|
A|---9---9---------------------------------------------------------|
E|-----------------------------------------------------------------| x4

Coro 2

Tienes que coordinar con la canción

G|----------------------------------------------------------------------|
D|----------------------------------------------------------------------|
A|--99--------------66-----------------------99---------------999810----|
E|----------99--------------66------77----------------99999999----------|

Coro

G|----------------------------------------------------------------------|
D|----------------------------------------------------------------------|
A|--99999999--------66666666-----------------999999999--------999810----|
E|----------99999999--------66666666677777777---------99999999----------| 

Intro

G|---------------------------------------------------|
D|---------------------------------------------------|
A|--99999999--------66666666-------------------------|
E|----------99999999--------77777777-----------------| 

Outro

G|-----------------------------------------------------|
D|-----------------------------------------------------|
A|--99999999--------66666666--------9~-----------------|
E|----------99999999--------77777777-------------------|
Добавлено: 26.03.2012
Другие материалы по этой песне:

Страница создана 21.03.2012
http://primanota.ru/6-voltios/lucas-chords.htm
Привет, Гость.
Предлагаем пройти революционный курс по гитаре.
Подарок от PrimaNota.Ru, забирай!