PrimaNota.ru - самый крупный в мире бесплатный архив песенных текстов, аккордов, табулатур и нот


6 Voltios - Generacion Perdida - таба, бас-таба, видео

Регистрация Запомнить меня
Войти через:  Facebook Google Twitter Vk Yandex Mail.ru

6 Voltios - Generacion Perdida - таба, бас-таба, видео

Печатать
Просмотров: 373
Уроки эстрадного вокала в Санкт-Петербурге
Intro

|------------------------------------------------------------------|
|------------------------------------------------------------------|
|------------------------------------------------------------------|
|---2---3---2---5-3-2------2---3---2---3-2-0-----------------------|
|-3---3---3---3----------3---3---3---3-----------------------------|
|------------------------------------------------------------------|


|------------------------------------------------------------------|
|------------------------------------------------------------------|
|------------------------------------------------------------------|
|---2---3---2--3--2--0--------2---3---0-2-3------------------------|
|-0---0---0--0--------------0---0---0------------------------------|
|------------------------------------------------------------------|


|------------------------------------------------------------------|
|------------------------------------------------------------------|
|------------------------------------------------------------------|
|--------2---3---5(xv)----2---3---5(xv)----------------------------|
|-----0----0---0---------0---0---0---------------------------------|
|------------------------------------------------------------------|
B5                                   F#5
Siempre moviéndome siempre buscando algo nuevo una diversión
G#5                                 E5              F#5 E5 D#5 
siempre creyendo que hay algo mejor nunca perder la esperanza de
B5                           F#5
poder creer en algo superior vivir feliz en este país
G#5                                E5              F#5 E5 D#5
salir adelante sin remordimientos nunca perder la esperanza nunca


B5                                       F#5    
Los tombos cojudos haciendo la finta que algo le importa nuestra juventud
G#5                            E5              F#5 E5 D#5
el chino huevon es un dictador que chucha pasa en el Peru, 
B5                       F#5  
puro borracho puro fumon pobreza miseria y perdición 
G#5                              E5               F#5 E5 D#5
nadie le importa nadie hace nada nunca perder la esperanza nunca

B5         F#5     E5
Pero mi generación es una mierda esta perdida
B5              F#5              E5           F#5
No hay nada que se pueda hacer y deja vivir y deja vivir 


*. EN TODA LA CANCIÓN      E5 SE TOCA:
F#5 SE TOCA:

E----------------         E--------------
B----------------         B--------------
G-------11-------         G------9-------
D-------11-------         D------9-------
A-------9--------         A------7-------
E----------------         E--------------
Solo:


|------------------------------------------------------------------|
|------------------------------------------------------------------|
|------------------------------------------------------------------|
|-2-2--2-2----2-2--2-2----0-0--0-0-----3-2-0-----------------------|
|---------3------------3-----------3---------3---------------------|
|------------------------------------------------------------------|




|------------------------------------------------------------------|
|------------------------------------------------------------------|
|------------------------------------------------------------------|
|-------0---------0-------3-3----3-3-3----3---5-3-2-0--------------|
|-0-3-0---3-0-3-0---0----------------------------------------------|
|------------------------------------------------------------------|


|------------------------------------------------------------------|
|------------------------------------------------------------------|
|------------------------------------------------------------------|
|-2-2--2-2----2-2--2-2----0-0--0-0-----3-2-0-----------------------|
|---------3------------3-----------3---------3---------------------|
|------------------------------------------------------------------|




|------------------------------------------------------------------|
|------------------------------------------------------------------|
|------------------------------------------------------------------|
|-------0----2--0---------3-3----3-3-3----3---5-3-2-0--------------|
|-0-3-0---3--------3--0--------------------------------------------|
|------------------------------------------------------------------|
Добавлено: 21.06.2012
Другие материалы по этой песне:
  • Аккорды и текст

Страница создана 07.06.2012
http://primanota.ru/6-voltios/generacion-perdida-chords.htm
Привет, Гость.
Предлагаем пройти революционный курс по гитаре.
Подарок от PrimaNota.Ru, забирай!