PrimaNota.ru - самый крупный в мире бесплатный архив песенных текстов, аккордов, табулатур и нот


6 Voltios - En El Olvido - таба, видео

Регистрация Запомнить меня
Войти через:  Facebook Google Twitter Vk Yandex Mail.ru

6 Voltios - En El Olvido - таба, видео

Печатать
Просмотров: 180

   
INTRO:F#5 C#5 B5 C#5
|-------------------------------------------------------------|
|-------------------------------------------------------------|
|-------2-4-0--------4--------5-4-2-5-4-2-2----5-4-2-5-4-2----|
|--5--5-------4--4-5---4-5--2----------------2-------------5--|
|-------------------------------------------------------------|
|-------------------------------------------------------------|

F#5                        C#5
Estoy tratando de encontrar la solución en otra
B5                   C#5
relacíon, pero no pasa nada, nunca funciona.
F#5         C#5
Estoy solo, aburrido,
B5          C#5
pensando en tí otra vez.

F#5                   C5            C#5             B5       C#5               
Pero nunca me amaste, me dejaste caer en el olvido, no puedo olvidarte.
F#5       C5                   C#5     B5      C#5
Porque tuvo que ser así, no lo entiendo. No lo entiendo.

|-------------------------------------------------------------|
|-------------------------------------------------------------|
|-------2-4-0--------4--------5-4-2-5-4-2-2----5-4-2-5-4-2----|
|--5--5-------4--4-5---4-5--2----------------2-------------5--|
|-------------------------------------------------------------|
|-------------------------------------------------------------|

F#5                   C#5
Todo lo que había por ver está muy raro y ya se
B5                         C#5
vió y no que dan esperanzas de que vuelva a ser mia.
F#5         C#5
Estoy solo, confundido,
B5          C#5
pensando en tí otra vez.

F#5                   C5            C#5             B5       C#5               
Pero nunca me amaste, me dejaste caer en el olvido, no puedo olvidarte.
F#5       C5                   C#5     B5      C#5
Porque tuvo que ser así, no lo entiendo. No lo entiendo.

|-------------------------------------------------------------|
|------6------6------6------6------6------6------6------------|
|----5---5--5---5--5---5--5---5--5---5--5---5--5---5--5-------|
|-------------------------------------------------------------|
|-------------------------------------------------------------|
|-------------------------------------------------------------|

|-------------------------------------------------------------|
|-------------------------------------------------------------|
|------6--------6--------4--------6---------------------------|
|--4-4---4--3-3---3--4-4---4--6-6---6-------------------------|
|-------------------------------------------------------------|
|-------------------------------------------------------------|

F#5               C#5              B5                     C#5
No soy un cagado, no soy el mejor, no soy el indicado para tener tu corazón.
F#5                 C#5             B5                    C#5
No quedan rencores, no queda dolor, queda aceptarlo y revotar en mi corazón.

|-------------------------------------------------------------|
|---------------5---------------------------------------------|
|--7-6-4-7-6-4----7-5-4-5-3-----------------------------------|
|-------------------------------------------------------------|
|-------------------------------------------------------------|
|-------------------------------------------------------------|

F#5       C5                   C#5     B5      C#5
Porque tuvo que ser así, no lo entiendo. No lo entiendo.
B5      C#5      B5      C#5
No lo entiendo, mejor dejarte en el olvido.

F#5 C5 C#5 B5 C#5 F#5 C5 C#5

B5      C#5      B5      C#5              F#5
No lo entiendo, mejor dejarte en el olvido.
Добавлено: 28.02.2012
Другие материалы по этой песне:
  • Аккорды и текст

Страница создана 28.02.2012
http://primanota.ru/6-voltios/en-el-olvido-chords.htm
Привет, Гость.
Предлагаем пройти революционный курс по гитаре.
Подарок от PrimaNota.Ru, забирай!