PrimaNota.ru - самый крупный в мире бесплатный архив песенных текстов, аккордов, табулатур и нот


5678s - Woo Hoo - аккорды и текст, таба, бас-таба, видео

Регистрация Запомнить меня
Войти через:  Facebook Google Twitter Vk Yandex Mail.ru

5678s - Woo Hoo - аккорды и текст, таба, бас-таба, видео

Печатать
Просмотров: 814
Woo Hoo
5678s
band 5-6-7-8's
song woohoo
 
tabbed by stephen east
 
email me at stepheneasty@hotmail.com
 
intro and main riff
 
standard tuning
 
E--------------------------------------
B--------------------------------------
G--------------------------------------
D--------------------------------------  x2
A---0--0--0--0--0--0--0--0--0--0
E--------------------------------------
 
 
 
 
E----------------------------------
B----------------------------------
G----------------------------------
D------------4--5--4-------------  x2
A---0--4--7-----------7--4--0--
E-----------------------------------
 

 
E---------------------------------
B---------------------------------
G------------4--5--4------------
D---0--4--7-----------7--4--0- 
A---------------------------------
E---------------------------------
 

E---------------------------------
B---------------------------------
G---------------------------------
D------------4--5--4------------ 
A---0--4--7-----------7--4--0-
E---------------------------------
 
 
 
E-------------------------------
B-------------------------------
G-------------------------------
D-------4--5--4----------------
A---7------------7--5--4--2--
E--------------------------------
 
chords used for the non main riff parts
 
 E-----  E------  E--------
 B-----  B------  B--------
 G-----  G----7-  G----5-
 D---7-  D----7-  D----5-
 A---7-  A----5-  A----7-
 E---5-  E------  E-------
 
this tab is all my own work

     
Добавлено: 16.08.2013
Другие материалы по этой песне:

Страница создана 27.02.2012
http://primanota.ru/5678s/woo-hoo-chords.htm
Привет, Гость.
Предлагаем пройти революционный курс по гитаре.
Подарок от PrimaNota.Ru, забирай!