PrimaNota.ru - самый крупный в мире бесплатный архив песенных текстов, аккордов, табулатур и нот


54-40 - Unbend Your Mind - таба, видео

Регистрация Запомнить меня
Войти через:  Facebook Google Twitter Vk Yandex Mail.ru

54-40 - Unbend Your Mind - таба, видео

Печатать
Просмотров: 176
		   Artist: 54-40
Song: Unbend your mind
Transcribed by jordanlockert@yahoo.com

Tablature Explanation:
h=hammer-on
p=pull-off
/=slide up or indicates picking
\=slide down
b=bend half
^=bend full
br, ^r=bend &release
~=let ring

Main riff:
-|--------------------------------|
-|--------------------------------|
-|--------------------------------|
-|--------3-----------------------|
-|--5-----1-----5-----3-3--3--3---|
-|--3-----------3-----1-1--1--1---|
                                                                              
1st variant
-|--------------------------------------------------|
-|--------------------------------------------------|
-|--------------------------------------------------|
-|-3~~~~~~~~~~~-------------3-----------------------|
-|-1~~~~~~~~~~~----3--5-----1-----5-----3-3--3--3---|
-|-----------------1--3-----------3-----1-1--1--1---|
                                                                              
2nd variant
-|-------------------------|
-|-------------------------|
-|-------------------------|
-|-3~~~~~~~~--5~~~~~~~~----|
-|-1~~~~~~~~--3~~~~~~~~----|
-|-------------------------|
                                                                              
guitar 2 fill:
-|----------------------------------------------------------------------------|
-|-11-11-11p10---10-10-10-10-10-10--------11-11-11-11---10-10-10-10-10-10h11--|
-|-12-12-12------12-12-12-12-12-12--------12-12-12-12---12-12-12-12-12-12-----|
-|----------------------------------------------------------------------------|
-|----------------------------------------------------------------------------|
-|----------------------------------------------------------------------------|


Bridge:
-|--------------|
-|--------------|
-|--------------|
-|--------------|
-|-3--3--3--5---|
-|-1--1--1--3---|                                                                              

Solo:
Gm blues
-|-----------------------------------------------------------------
-|-----------------------------------------------------------------
-|-12h15p12------15p12---------------12h15p12--------15-17^-15-----
-|---------15---------15----12h15------------15---17---------------
-|-----------------------------------------------------------------
-|-----------------------------------------------------------------
                                                                              

--------------------------------------------------------15-15--------------
------------------------------------------------------15------15-18-18-----
-----15-17-17^--17^--17^-----17p15--17^-15---------17^---------------------
-17-------------------------------17--------------------------------------
------------------------------------------------------------------------
------------------------------------------------------------------------
                                                                              

-----15----------------------------------18--------------------
--18----15-18^-18^-----15-18^--------18^----18^r-15------------
----------------------------------------------------17^-15-----
---------------------------------------------------------------
---------------------------------------------------------------
---------------------------------------------------------------
                                                                              

---------------------------------------------------------------------------|
-------------15-15-18-------17-15---------15------15-----------------------|
-17--15--17^---------17p15--15-15---------15------15--------15-15----------|
-------------------------------------------------------15---------17~~~~~~-|
-----------------------------------16-17-------17--------17----------------|
---------------------------------------------------------------------------|
                                                                              
sometimes during that main riff
guitar 2 plays the part in brackets 
in time with the 2 G5 chords:
-|-(6p5)-------(6p5)--------------|
-|--------------------------------|
-|--------------------------------|
-|--------3-----------------------|
-|--5-----1-----5-----3-3--3--3---|
-|--3-----------3-----1-1--1--1---|
     
Добавлено: 20.08.2013
Другие материалы по этой песне:
  • Аккорды и текст

Страница создана 20.08.2013
http://primanota.ru/54-40/unbend-your-mind-chords.htm
Привет, Гость.
Предлагаем пройти революционный курс по гитаре.
Подарок от PrimaNota.Ru, забирай!