PrimaNota.ru - самый крупный в мире бесплатный архив песенных текстов, аккордов, табулатур и нот


54-40 - Shes A Jones - таба, видео

Регистрация Запомнить меня
Войти через:  Facebook Google Twitter Vk Yandex Mail.ru

54-40 - Shes A Jones - таба, видео

Печатать
Просмотров: 94
-------------------------------------------------------------------------------
                             SHE'S A JONES - 54-40
-------------------------------------------------------------------------------
Tabbed by: Matt!

Tuning: Standard ( E A D G B e )

This is the intro to the song. I did it all by ear, so it probably isn't 100% correct!

e|----0---0h2p0----------0---0h2p0----------0------0--------0---2--4---------|
B|--------------0------------------0-----------------0-----------------------|
G|---------------------------------------------------------------------------|
D|-2----2----------2-------2---------2---------------------------------------|
A|-------------------------------------4------4---------0-----0--------------|
E|---------------------------------------------------------------------------|


************************************

| /   slide up
| \   slide down
| h   hammer-on
| p   pull-off
| ~   vibrato
| +   harmonic
| x   Mute note
| b   Bend
| pb  Pre-bend
| br  Bend release
| pbr Pre-bend release
| brb Bend release bend

************************************
Добавлено: 21.09.2015
Другие материалы по этой песне:
  • Аккорды и текст

Страница создана 21.09.2015
http://primanota.ru/54-40/shes-a-jones-chords.htm
Привет, Гость.
Предлагаем пройти революционный курс по гитаре.
Подарок от PrimaNota.Ru, забирай!