PrimaNota.ru - самый крупный в мире бесплатный архив песенных текстов, аккордов, табулатур и нот


501 - Falling Skies - таба, видео

Регистрация Запомнить меня
Войти через:  Facebook Google Twitter Vk Yandex Mail.ru

501 - Falling Skies - таба, видео

Печатать
Просмотров: 197
Falling Skies - 501


501 - Never Say Die Records

501's Facebook:
https://www.facebook.com/501dubz

501's Soundcloud:
http://soundcloud.com/501dubz

501's Beatport:
http://www.beatport.com/artist/501/99379



I use a rotary pedal to sound somewhat like the tone in the song

e|---------10------13---------------------10------13---17----|
B|-11--13------13------10---------11--13------13-------------|
G|----------------------------12-----------------------------|
D|-----------------------------------------------------------|
A|-----------------------------------------------------------|
E|-----------------------------------------------------------|

e|-10~-------------------------------------------------------|
B|-----13~-11~-10-11-10~-----10------------------------------|
G|------------------------12----12~-10~-12-------------------|
D|-----------------------------------------12~---------------|
A|-----------------------------------------------------------|
E|-----------------------------------------------------------|

e|-10~-------------------------------------------------------|
B|-----13~-11~-10-11-10~-----10------------------------------|
G|------------------------12----12~-10~-14-12~-14-12~-14-12~-|
D|-----------------------------------------------------------|
A|-----------------------------------------------------------|
E|-----------------------------------------------------------|

e|-13~-------------------------------------------------------|
B|-----13~-11~-10-11-10~-----10------------------------------|
G|------------------------12----12~-10~-12-------------------|
D|-----------------------------------------12~---------------|
A|-----------------------------------------------------------|
E|-----------------------------------------------------------|

e|-13~-12~-10~-----------------------------------------------|
B|-------------10-11-10~-----10-11~--------------------------|
G|------------------------12--------10~-14-12~-14-12~-14-12~-|
D|-----------------------------------------------------------|
A|-----------------------------------------------------------|
E|-----------------------------------------------------------|


Tremolo pick these notes like in the song, and slide up and down as you see fit
e|-----------------------------------------------------------|
B|-----------------------------------------------------------|
G|-----------------------------------------------------------|
D|---8\--/8--10--12------------------------------------------|
A|-------------------12--10\--/10--12------7----12-----------|
E|-------------------------------------10-----8--------------|


You can play the notes in ()'s as well
e|-----------------------------------------------------------|
B|-----------------------------------------------(10)--------|
G|----------------------------------------(9)----------------|
D|--12\--/12--10-----10----------------------(10)------------|
A|---------------12-----10\--/10--12-------7------12---------|
E|-----------------------------------10--------8-------------|

Chords used at the end:
e|-----------------------------------------------------------|
B|-----------------------------------------------------------|
G|------------------7----------------------------------------|
D|---5------8-------7----------------------------------------|
A|---5------8-------5----------------------------------------|
E|---3------6------------------------------------------------|
Добавлено: 13.10.2013
Другие материалы по этой песне:
  • Аккорды и текст

Страница создана 13.10.2013
http://primanota.ru/501/falling-skies-chords.htm
Привет, Гость.
Предлагаем пройти революционный курс по гитаре.
Подарок от PrimaNota.Ru, забирай!