PrimaNota.ru - самый крупный в мире бесплатный архив песенных текстов, аккордов, табулатур и нот


50 Lions - Wrong Choices - таба, видео

Регистрация Запомнить меня
Войти через:  Facebook Google Twitter Vk Yandex Mail.ru

50 Lions - Wrong Choices - таба, видео

Печатать
Просмотров: 264
Song: Wrong Choices
Band: 50 Lions
Album: Where Life Expires

Drop D:     D A D G B e


Part 1:

-----------------------------------|
-----------------------------------|
-----------------------------------|
------6-5-6-5-----6-5-6-5-3-3-5-5--|
--0-0-6-5-6-5-0-0-6-5-6-5-3-3-5-5--|
--0-0-6-5-6-5-0-0-6-5-6-5-3-3-5-5--|
  . .         . .


-----------------------------------|
-----------------------------------|
-----------------------------------|
------6-5-6-5-----6-5-6-5-------0--|
--0-0-6-5-6-5-0-0-6-5-6-5-------0--|
--0-0-6-5-6-5-0-0-6-5-6-5-6-5-3-0--|
  . .         . .         . . .


-----------------------------------|
-----------------------------------|
-----------------------------------|
------6-5-6-5-----6-5-6-5-3-3-5-5--|
--0-0-6-5-6-5-0-0-6-5-6-5-3-3-5-5--|
--0-0-6-5-6-5-0-0-6-5-6-5-3-3-5-5--|
  . .         . .


-----------------------------------|
-----------------------------------|
-----------------------------------|
------6-5-6-5----------------------|
--0-0-6-5-6-5-0-0-0-0-0-0-6---3----|
--0-0-6-5-6-5-0-0-0-0-0-0-6---3----|
  . .         . . . . . .


Part 2:

---------------------------|
---------------------------|
---------------------------|
--0---------5-----8---6----|
--0---------5-----8---6----|
--0---------5-----8---6----|


Part 3:

-------------------------------|
-------------------------------|
-------------------------------|
--0-------------3-5---6---5----|
--0-0-0-0-0-0-0-3-5-0-6-0-5-0--|
--0-0-0-0-0-0-0-3-5-0-6-0-5-0--|
    . . . . . .     .   .   .


---------------------------------|
---------------------------------|
---------------------------------|
--0-------------3-5---5-6---6-3--|
--0-0-0-0-0-0-0-3-5-0-5-6-0-6-3--|
--0-0-0-0-0-0-0-3-5-0-5-6-0-6-3--|
    . . . . . .     .     .


Part 4:

---------------------------------------|
---------------------------------------|
---------------------------------------|
--2---2-------(2)------1---1------(1)--|
--2-0-2-------(2)------1-0-1------(1)--|
--2-0-2-------(2)------1-0-1------(1)--|
    .                    .         


-----------------------------------|
-----------------------------------|
-----------------------------------|
----5-------5-------5-------6---5--|
--0-5-----0-5-----0-5-----0-6---5--|
--0-5-----0-5-----0-5-----0-6---5--|
  .       .       .       .


Back to Part 1.

Please comment/rate and check out my other tabs and rate/comment them too
Добавлено: 17.03.2012
Другие материалы по этой песне:
  • Аккорды и текст

Страница создана 17.03.2012
http://primanota.ru/50-lions/wrong-choices-chords.htm
Привет, Гость.
Предлагаем пройти революционный курс по гитаре.
Подарок от PrimaNota.Ru, забирай!