PrimaNota.ru - самый крупный в мире бесплатный архив песенных текстов, аккордов, табулатур и нот


5 Seconds Of Summer - Teenage Dream Live - таба, видео

Регистрация Запомнить меня
Войти через:  Facebook Google Twitter Vk Yandex Mail.ru

5 Seconds Of Summer - Teenage Dream Live - таба, видео

Печатать
Просмотров: 307
------------------------------------------------------------------------------
      Teenage Dream (Live at The Summertime Ball) - 5 Seconds Of Summer
------------------------------------------------------------------------------
(I did this by ear so it might not be perfect, but it sounds pretty good to me)

Tuning:standard

e|---------------------------------------------------3-2-0-------------------|
B|-----2-3-3-2-2-------2-3-3-2-------2-3-3-2-2-3-3--3-----3------------------|
G|-0-0-----------0-2-2---------2-4-4-----------------------------------------|     x4
D|---------------------------------------------------------------------------|
A|---------------------------------------------------------------------------|
E|---------------------------------------------------------------------------|

or, alternatively


e|---------------------------------------------------------------------------|
B|---------------------------------------------------------------------------|
G|---------------------------------------------------------------------------|     x4
D|------------------------------------------------------5-4-3----------------|
A|-----4-5-5-4-4------4-5-5-4-------4-5-5-4-4-5-5--5---------5---------------|
E|-3-3-----------3-5-5--------5-7-7------------------------------------------|
Добавлено: 06.09.2014
Другие материалы по этой песне:
  • Аккорды и текст

Страница создана 06.09.2014
http://primanota.ru/5-seconds-of-summer/teenage-dream-live-chords.htm
Привет, Гость.
Предлагаем пройти революционный курс по гитаре.
Подарок от PrimaNota.Ru, забирай!