PrimaNota.ru - самый крупный в мире бесплатный архив песенных текстов, аккордов, табулатур и нот


5 Seconds Of Summer - Teenage Dream - таба, видео

Регистрация Запомнить меня
Войти через:  Facebook Google Twitter Vk Yandex Mail.ru

5 Seconds Of Summer - Teenage Dream - таба, видео

Печатать
Просмотров: 294
Hey there, before I start off I just want to say that these are NOT my chords!
I got all the chords and strumming pattern from this YouTube video:
https://www.youtube.com/watch?v=1IL-UGEq0RQ I couldn't find a correct tab for this cover,
so I decided to take the tab from the video and put it here!
This is also my first tab so please rate it!

Twitter: @5saucexhood


5 Seconds of Summer - Teenage Dream, Katy Perry (Cover)
**Drop D tuning


-INTRO: (Palm mute)

E|-------------------------------------|
B|---7-7-7-7-7-7-7-7--8-8-8-8-8-8-8-8--|
G|---7-7-7-7-7-7-7-7--7-7-7-7-7-7-7-7--|  x6 
D|-------------------------------------|
A|-------------------------------------|
E|-------------------------------------|



-VERSE ONE:

E|-------------------------------------|
B|---3--x-x-x--7--5-5--x-x-------------|
G|---4--x-x-x--8--6-6--x-x-------------|  x8 
D|------x-x-x----------x-x-------------|
A|---5--x-x-x--9--7-7--x-x-------------|
E|---5--x-x-x--9--7-7--x-x-------------|

     D         U  D U



-CHORUS:

E|-------------------------------------|
B|---3----------7--5-5-----------------|
G|---4----------8--6-6-----------------|  x3
D|-------------------------------------|
A|---5----------9--7-7-----------------|
E|---5----------9--7-7-----------------|

     DD-UU-D    U  UD-UD


E|-------------------------------------|
B|---3---------------------------------|
G|---4---------------------------------|  x2 
D|-------------------------------------|
A|---5---------------------------------|
E|---5---------------------------------|

     DD-UU-D

Then you repeat these two tabs once more, exactly the same.


-Now for VERSE TWO, you play verse one again. After playing verse two,
you play the chorus the same way.


-BRIDGE:

E|----------------------------------------------|
B|---3---------5---------7---------10-----------|
G|---4---------4---------8---------11-----------|  x3
D|----------------------------------------------|
A|---5---------7---------9---------12-----------|
E|---5---------7---------9---------12-----------|

     DD-UU-D   DD-UU-D   DD-UU-D   DD-UU-D


-For the OUTRO, you play the chorus! **Optional, you can play the intro
plucking as well for the outro!













Добавлено: 21.06.2015
Другие материалы по этой песне:
  • Аккорды и текст

Страница создана 21.06.2015
http://primanota.ru/5-seconds-of-summer/teenage-dream-chords.htm
Привет, Гость.
Предлагаем пройти революционный курс по гитаре.
Подарок от PrimaNota.Ru, забирай!