PrimaNota.ru - самый крупный в мире бесплатный архив песенных текстов, аккордов, табулатур и нот


5 Seconds Of Summer - Lost In Reality - аккорды и текст, таба, видео

Регистрация Запомнить меня
Войти через:  Facebook Google Twitter Vk Yandex Mail.ru

5 Seconds Of Summer - Lost In Reality - аккорды и текст, таба, видео

Печатать
Просмотров: 477
Уроки эстрадного вокала в Санкт-Петербурге
Lost In Reality
5 Seconds Of Summer
E  B  C#m  A

or tab:
e|--------------------------------------------------|
B|-------------------------------9--10--9-----------|
G|--9--9-----11--9--11----9--11------------11--9----|
d|--------9-----------------------------------------|
A|--------------------------------------------------|
E|--------------------------------------------------|

e|--------------------------------------------------|
B|-----------------9---------------9--10--9---------|
G|--11--11--9--11-----11----9--11------------11--9--|
d|--------------------------------------------------|
A|--------------------------------------------------|
E|--------------------------------------------------|

e|--------------------------------------------------|
B|--------------------------------------------------|
G|--9--9-----9--11--9----9--9------9--11--9---------|
d|--------9---------------------9-------------------|
A|--------------------------------------------------|
E|--------------------------------------------------|

e|--------------------------------------------------|
B|---------10--9----------10--9---------------------|
G|------9--------------9----------------------------|
d|--11-------------11-------------------------------|
A|--------------------------------------------------|
E|--------------------------------------------------|

E
you throw me around like a ragdoll 
B
and throw me away like your cigarettes
C#m                                   A
then pick up the pieces of whatever's left of me 

they're yours to keep

E
a million and one ways that i've tried 
B
to turn it around, leave it all behind
C#m
but every time you turn out to be 
A
one step ahead of me

E
lost in reality 
                      B
i can feel you in the dark when i fall asleep
                          C#m
all that's in my head are pictures of memories

words that you said to me
A
hey hey hailey, won't you save me?

E
bittersweet chemistry
                   B
i can't escape you anywhere, even in my dreams
                         C#m
all that's in my head are pictures of memories

words that you said to me
A
hey hey hailey, won't you save me?

E

E
through all the lights in the night sky
B
you drift away then you disappear
C#m                               A
counting the days til i bring her back to me eventually

E
my strung out heart needs your angel eyes
B
they tear me apart and i'm hypnotized
C#m                                   A
let's pick up the pieces of whatever's left of me

they're yours to keep

E
lost in reality 
                      B
i can feel you in the dark when i fall asleep
                          C#m
all that's in my head are pictures of memories

words that you said to me
A
hey hey hailey, won't you save me?

E
bittersweet chemistry
                   B
i can't escape you anywhere, even in my dreams
                         C#m
all that's in my head are pictures of memories

words that you said to me
A
hey hey hailey, won't you save me?

E B A C B

E
lost in reality 
                      B
i can feel you in the dark when i fall asleep
                          C#m
all that's in my head are pictures of memories

words that you said to me
A
hey hey hailey, won't you save me?

E
lost in reality 
                      B
i can feel you in the dark when i fall asleep
                          C#m
all that's in my head are pictures of memories

words that you said to me
A
hey hey hailey, won't you save me?

       E
bittersweet chemistry
                   B
i can't escape you anywhere, even in my dreams
                         C#m
all that's in my head are pictures of memories

words that you said to me
A                                   E
hey hey hailey, won't you save me?
Добавлено: 18.02.2016
Другие материалы по этой песне:
  • Аккорды и текст

Страница создана 18.02.2016
http://primanota.ru/5-seconds-of-summer/lost-in-reality-chords.htm
Привет, Гость.
Предлагаем пройти революционный курс по гитаре.
Подарок от PrimaNota.Ru, забирай!