PrimaNota.ru - самый крупный в мире бесплатный архив песенных текстов, аккордов, табулатур и нот


5 Seconds Of Summer - Independence Day - аккорды и текст, таба, видео

Регистрация Запомнить меня
Войти через:  Facebook Google Twitter Vk Yandex Mail.ru

5 Seconds Of Summer - Independence Day - аккорды и текст, таба, видео

Печатать
Просмотров: 312
Independence Day
5 Seconds Of Summer
Bm G D A 
Bm G D~

or:

e|--------------------------------------|
B|--11------11--------------------------|
G|------12------12--10--12--10--8--5----| (x2)
d|--------------------------------------|
A|--------------------------------------|
E|--------------------------------------|


Bm
You're telling me the same old story
G
And that I need to change
D
If you're not leaving my life for me
A
You make me feel that way

Bm
You know, you know
G
We're losing control
D
I gotta break away
A
Or nothing's gonna change

Bm
You got to go
         G
It's the end of the road
D                        A
No matter what you do or say
G               A
Baby you're not what I need

Bm         G             D      
I'm over this, I'm over you
              A                Bm    G    D
I'm not gonna waste my life away
           A
This is my independence day
Bm            G                 D
I'm moving on, there's no excuse
        A                 Bm    G    D
I can't take away the pain
           A               Bm   G    D
This is my independence day
           A               Bm   G    D~
This is my independence day

Bm
Suddenly my picture's looking perfect
G
Since you're not in the frame
D
And deep down, I never meant to hurt you
A
But you're the one to blame

Bm
You know, you know
G
We're losing control
D
Before it's too late
A
I'm making my escape

Bm
Now that I'm gone
G
You're own your own
D                        A
No matter what you do or say

G               A
Baby you're not what I need

Bm         G             D      
I'm over this, I'm over you
              A                Bm    G    D
I'm not gonna waste my life away
           A
This is my independence day
Bm            G                 D
I'm moving on, there's no excuse
        A                 Bm    G    D
I can't take away the pain
           A               
This is my independence day

D         G
  Wouldn't it be nice
Bm                  A  
  If it could have worked out right for us?
D               G                   Bm            A
  I know you're fighting for all we had
D               G
  But it didn't feel right
Bm              A
  Hearts on our sleeves we lost tonight
D                G               
  And there's no looking back

Bm   G   D   A (x3)
Bm

or:

e|--11--11--11------------------------------------|
B|--------------11--11--11--9--9--9-----8--9--11--|
G|-----------------------------------8------------|  (x2)
d|------------------------------------------------|
A|------------------------------------------------|
E|------------------------------------------------|

e|--------------------|
B|--4-----6--4--3--4--|
G|-----3--------------|  (x2)
d|--------------------|
A|--------------------|
E|--------------------|

e|--3--3--4--4--6--6--11--11--10--10--10--10--10/--|
B|-------------------------------------------------|
G|-------------------------------------------------|
d|-------------------------------------------------|
A|-------------------------------------------------|
E|-------------------------------------------------|

Bm         G             D      
I'm over this, I'm over you
              A                Bm    G    D
I'm not gonna waste my life away
           A
This is my independence day
Bm            G                 D
I'm moving on, there's no excuse
        A                 Bm    G    D
I can't take away the pain
           A               
This is my independence day

D           G
 Wouldn't it be nice
Bm               A
If it would have worked out right for us?
D                      G
And there's no looking back

Bm   G   D

          A
This is my independence day

Bm   G   D

         A
This is my independence day
Добавлено: 18.10.2014
Другие материалы по этой песне:
  • Аккорды и текст

Страница создана 18.10.2014
http://primanota.ru/5-seconds-of-summer/independence-day-chords.htm
Привет, Гость.
Предлагаем пройти революционный курс по гитаре.
Подарок от PrimaNota.Ru, забирай!