PrimaNota.ru - самый крупный в мире бесплатный архив песенных текстов, аккордов, табулатур и нот


5 Seconds Of Summer - I Cant Remember - аккорды и текст, бас-таба, видео

Регистрация Запомнить меня
Войти через:  Facebook Google Twitter Vk Yandex Mail.ru

5 Seconds Of Summer - I Cant Remember - аккорды и текст, бас-таба, видео

Печатать
Просмотров: 328
I Cant Remember
5 Seconds Of Summer
e|------------------------------------|
B|--5--5--5--7--7--7--9--9--9--10--9--|
G|------------------------------------|
d|------------------------------------|
A|------------------------------------|
E|------------------------------------|

Verse 1:
E                         B
Pretty girl, what's your name, what's your number?
A                    A
I got the keys to my dad's yellow hummer
E                        B                 A           A
There's a party, you can come if you wanna go tonight, alright see ya later
E                       B          
Wrapped up late, took a minute, but I found my mates
A                     A
She was there, acting cool, so we made her wait
C#m                   B                      A          (stop)
Wasn't long, couple songs til I headed her way to say, "Damn, you look amazing"

Chorus:
E           B            A             B     
Last night, what a blur, woke up lying next to her
E           B            A                A
Last night, made a mess, it doesn't get better than this
E                     B    A                       B
Phone rings from the bar, twenty five texts and a call from mum
C#m          B         A
Must've been good, cos I can't remember 

Fill:
e|------------------------------------|
B|--5--5--5--7--7--7--9--9--9--10--9--|
G|------------------------------------|
d|------------------------------------|
A|------------------------------------|
E|------------------------------------|

Verse 2:
E                               B
Retraced my steps, searched my phone, tryna figure out
A                      A
Posting pictures of us streaking past the neighbor's house
C#m                  B
If my boss sees my status he'll be freaking out
    A                 A
But I don't care, oh well, deal with it later

Chorus:
E           B            A             B
Last night, what a blur, woke up lying next to her
E           B            A              A
Last night, made a mess, it doesn't get better than this
E            B            A                       B            
Phone rings from the bar, twenty five texts and a call from mum
C#m          B         A
Must've been good, cos I can't remember

Bridge:
"Bro,where's your shirt?"
e|------------------------------------------------------------------|
B|--5--5--5--7--7--7--9--9--9--10--9--------------------------------|
G|---------------------------------------8--8--8--9--9--9--11-------|
d|------------------------------------------------------------------|
A|------------------------------------------------------------------|
E|------------------------------------------------------------------|

"Aw, shit. What the hell happened last night?"
e|------------------------------------------------------------------|
B|--------------------------------10--9-----------------------------|
G|--6--6--6--6--6--x--6--6--6--6------------------------------------|
d|------------------------------------------------------------------|
A|------------------------------------------------------------------|
E|------------------------------------------------------------------|

"I've got the biggest headache."
"I need an aspirin, my head's killing me..."
e|------------------------------------------------------------------|
B|--5--5--5--7--7--7--9--9--9--10--9--------------------------------|
G|---------------------------------------8--8--8--9--9--9--11-------|
d|------------------------------------------------------------------|
A|------------------------------------------------------------------|
E|------------------------------------------------------------------|

"Who was that girl from last night anyway?"
e|------------------------------------------------------------------|
B|--------------------------------10--9-----------------------------|
G|--6--6--6--6--6--x--6--6--6--6------------------------------------|
d|------------------------------------------------------------------|
A|------------------------------------------------------------------|
E|------------------------------------------------------------------|

E                     B
Pretty girl, got your name, got your number
A                        A
I've lost the keys to my dad's yellow hummer
C#m                B
Can't remember how I did it but I got her
A
Now she's mine, damn, she's so amazing

E           B            A             B
Last night, what a blur, woke up lying next to her
E           B              A            A
Last night, made a mess, it doesn't get better than this
E            B             A                       B   
Phone rings from the bar, twenty five texts and a call from mum
C#m          B         A 
Must've been good, cos I can't remember

E           B                          A             B
Last night, what a blur (what a blur), woke up lying next to her (lying next to her)
E           B                          A           A
Last night, made a mess (made a mess), doesn't get better than this (doesn't get better)
E           B             A                       B 
Phone rings from the bar, twenty five texts and a call from mum
C#m          B         A       
Must've been good, cos I can't remember (cos I can't remember)

E     B               A
Can't remember (can't remember)
B
(can't remember)
E      B              A
Can't remember (can't remember)
B
(can't remember)
E      B             A
Can't remember (can't remember)
B
(can't remember)
C#m          B        A        
Must've been good, cos I can't remember
Добавлено: 21.06.2015
Другие материалы по этой песне:
  • Аккорды и текст

Страница создана 21.06.2015
http://primanota.ru/5-seconds-of-summer/i-cant-remember-chords.htm
Привет, Гость.
Предлагаем пройти революционный курс по гитаре.
Подарок от PrimaNota.Ru, забирай!