PrimaNota.ru - самый крупный в мире бесплатный архив песенных текстов, аккордов, табулатур и нот


5 Seconds Of Summer - Everything I Didnt Say Livesos - бас-таба, видео

Регистрация Запомнить меня
Войти через:  Facebook Google Twitter Vk Yandex Mail.ru

5 Seconds Of Summer - Everything I Didnt Say Livesos - бас-таба, видео

Печатать
Просмотров: 107
-------------------------------------------------------------------------------
Everything I Didn't Say (LIVESOS) - 5 Seconds of Summer
-------------------------------------------------------------------------------
Tabbed by: shirleyhood

Tuning: Standard

Intro
G|------------------------------------------------------------------|
D|--------------------------------12-12-14-14-12-12-14-14-12-14-----|
A|-12-12-14-14-12-12-14-14-12-14------------------------------------|
E|------------------------------------------------------------------|

G|------------------------------------------------------------------|
D|o--------------------------------12-12-14-14-12-12-14-14-12-14----|
A|o-12-12-14-14-12-12-14-14-12-14-----------------------------------|
E|------------------------------------------------------------------|

G|------------------------------------------------------------------|
D|-----------------------------------------------------------------o|
A|-12-12-14-14-12-12-14-14-12-14-10--------------------------------o|
E|------------------------------------------------------------------|x2

Rest

The way you held me...
G|-----------------------------------------------------------------|
D|-----------------------------------------------------------------|
A|-----------------------------------------------------------------|
E|-3-3-3-3-3-3-3-3-8-8-8-8-8-8-8-8-3-3-3-3-3-3-3-3-8---------------|
   1 + 2 + 3 + 4 + 1 + 2 + 3 + 4 + 1 + 2 + 3 + 4 + 1 + 2 + 3 + 4 +

Chorus
G|--------------------------------------------------------------------|
D|o------------------------------------------------------------------o|
A|o-10---------------9---------------7---------------3---------------o|
E|--------------------------------------------------------------------|x2
    1 + 2 + 3 + 4 + 1 + 2 + 3 + 4 + 1 + 2 + 3 + 4 + 1 + 2 + 3 + 4 +

Post-Chorus
G|-----------------------------------------------------------------|
D|--------------------------------12-12-14-14-12-12-14-14-12-14----|
A|-12-12-14-14-12-12-14-14-12-14-----------------------------------|
E|-----------------------------------------------------------------|

G|-----------------------------------------------------------------|
D|-----------------------------------------------------------------|
A|-12-12-14-14-12-12-14-14-12-14-10--------------------------------|
E|-----------------------------------------------------------------|

Rest

Holding onto...
G|-----------------------------------------------------------------|
D|-----------------------------------------------------------------|
A|-----------------------------------------------------------------|
E|-3-3-3-3-3-3-3-3-8-8-8-8-8-8-8-8-3-3-3-3-3-3-3-3-8---------------|
   1 + 2 + 3 + 4 + 1 + 2 + 3 + 4 + 1 + 2 + 3 + 4 + 1 + 2 + 3 + 4 +

Chorus
G|-------------------------------------------------------------------------|
D|-------------------------------------------------------------------------|
A|-10-10-10-10-10-10-10-10-9-9-9-9-9-9-9-9-7-7-7-7-7-7-7-7-3-3-3-3-3-3-3-3-|
E|-------------------------------------------------------------------------|
   1  +  2  +  3  +  4  +  1 + 2 + 3 + 4 + 1 + 2 + 3 + 4 + 1 + 2 + 3 + 4 +

G|-------------------------------------------------------------------------|
D|-------------------------------------------------------------------------|
A|-10-10-10-10-10-10-10-10-9-9-9-9-9-9-9-9-7-7-7-7-7-7-7-7-3---------------|
E|-------------------------------------------------------------------------|
   1  +  2  +  3  +  4  +  1 + 2 + 3 + 4 + 1 + 2 + 3 + 4 + 1 + 2 + 3 + 4 +

Bridge
G|------------------------------------------------------------------|
D|o----------------------------------------------------------------o|
A|o-7---7-----------5---5-----------3---3---3---3---3---3---3---3--o|
E|------------------------------------------------------------------|x2
    1 e + a 2 e + a 3 e + a 4 e + a 1 e + a 2 e + a 3 e + a 4 e + a

G|-----------------------------------------------------------------|
D|-----------------------------------------5-------4---------5-7-5-|
A|-7---7-----------5---5-----------3-----------------------5-------|
E|-----------------------------------------------------------------|
   1 e + a 2 e + a 3 e + a 4 e + a 1 e + a 2 e + a 3 e + a 4 e + a

G|-----------------------------------------------------------------|
D|-----------------------------------------------------------------|
A|-7---7-----------5---5-----------3-------------------------------|
E|-----------------------------------------------------------------|
   1 e + a 2 e + a 3 e + a 4 e + a 1 e + a 2 e + a 3 e + a 4 e + a

Chorus
G|-------------------------------------------------------------------------|
D|-------------------------------------------------------------------------|
A|----------------------10-9-9-9-9-9-9-9-9-7-7-7-7-7-7-7-7-3-3-3-3-3-3-3-3-|
E|-------------------------------------------------------------------------|
   1  +  2  +  3  +  4  +  1 + 2 + 3 + 4 + 1 + 2 + 3 + 4 + 1 + 2 + 3 + 4 +

G|-------------------------------------------------------------------------|
D|-------------------------------------------------------------------------|
A|-10-10-10-10-10-10-10-10-9-9-9-9-9-9-9-9-7-7-7-7-7-7-7-7-3---------------|
E|-------------------------------------------------------------------------|
   1  +  2  +  3  +  4  +  1 + 2 + 3 + 4 + 1 + 2 + 3 + 4 + 1 + 2 + 3 + 4 +

Outro
G|------------------------------------------------------------------|
D|o--------------------------------12-12-14-14-12-12-14-14-12-14----|
A|o-12-12-14-14-12-12-14-14-12-14-----------------------------------|
E|------------------------------------------------------------------|

G|------------------------------------------------------------------|
D|-----------------------------------------------------------------o|
A|-12-12-14-14-12-12-14-14-12-14-10--------------------------------o|
E|------------------------------------------------------------------|x2

===============================================================================
Добавлено: 18.02.2016
Другие материалы по этой песне:
  • Аккорды и текст

Страница создана 18.02.2016
http://primanota.ru/5-seconds-of-summer/everything-i-didnt-say-livesos-chords.htm
Привет, Гость.
Предлагаем пройти революционный курс по гитаре.
Подарок от PrimaNota.Ru, забирай!