PrimaNota.ru - самый крупный в мире бесплатный архив песенных текстов, аккордов, табулатур и нот


5 Seconds Of Summer - Catch 22 - таба, видео

Регистрация Запомнить меня
Войти через:  Facebook Google Twitter Vk Yandex Mail.ru

5 Seconds Of Summer - Catch 22 - таба, видео

Печатать
Просмотров: 144
Новый альбом группы 'Черный Кузнец' по культовому сериалу 'Сверхъестественное'!
This is my first tab, I hope you like it!! - some of it's in chords cause they play it 
that way in the song.
Also I know it's not 100% correct but I play it like this and it seems to work.
(ALL CHORDS SHOULDS BE PLAYED AS POWER CHORDS) *=single strum **=double strum
(Listen to the song to get the rhythm for chords changes and tab)
It would be great if you rated, don't worry if you can't :)

[Verse 1]

G    D     E
Youoooooooooo
G    D     E  D#
Youoooooooooo

G         D
Wasted, I play the same part
D         E            C
Where I'm chasing your sick little heart
C        G         D            E     D#
'Til I'm jaded and lying on the floor
G          D
Faded, I'm wrapped in your arms
D            E          C
While you're waiting to tear me apart
C       G         D                E     *D#
Would a last kiss leave me wanting more?

[Chorus]

**G  **D   E
Youoooooooooo, you're a catch 22
G      D        E
Win or lose I'm screwed
    C                  G
I'm trapped under your spell
G  D         C              D
It saves me, breaks me 'til I fall back to
G    D     E
Youoooooooooo
C
You're a catch 22
---7777---7777---7777---12-10-8---|
----------------------------------|
--------77-----55-----55----------|
-55-----77-----55-----55----------|
-55-----55-----33-----33----------|
-33-------------------------------|
                 You're a catch 22
---10-10-10-10---10-10-10-10---10-10-10-10-----12-10-8--|
---12-12-12-12---12-12-12-12---12-12-12-12--------------|
---------------77------------55------------5555---------|
-55------------77------------55------------5555---------|
-55------------55------------33------------3333---------|
-33-----------------------------------------------------|

[Verse 2]

G         D                     E
Restless, I stay awake with the spaces
E   C                    G                 D           E  D#
The thought of our hands interlacing, it's taking over me
G             D                          E
Reckless, I'm at your front door and I'm helpless
E   C                      G          D            E  *D#
I'm twisted back up in the madness, repeating history
E                  D          C
Promise me, you'll never let me leave

[Chorus]

**G  **D   E
Youoooooooooo, you're a catch 22
G      D        E
Win or lose I'm screwed
    C                  G
I'm trapped under your spell
G  D         C              D
It saves me, breaks me 'til I fall back to
G    D     E
Youoooooooooo
C
You're a catch 22
---7777---7777---7777---12-10-8---|
----------------------------------|
--------77-----55-----55----------|
-55-----77-----55-----55----------|
-55-----55-----33-----33----------|
-33-------------------------------|
                 You're a catch 22
---10-10-10-10---10-10-10-10-----12-10-8--|
---12-12-12-12---12-12-12-12--------------|
---------------77------------5555---------|
-55------------77------------5555---------|
-55------------55------------3333---------|
-33---------------------------------------|

[Bridge]

------------------------------------|
------------------------------------|
------------------------------------|
---5---5---5---5---5---5---5---5----|
--7---7---7---7---7---7---7---7-----|
-7---7---7---7---8---8---8---8------|   (x2 - not entirely sure about this part)

E               D           C
Damned if I do, damned if I don't
C      G                    E   *D#
Let me go, I'm better off alone
and here we go again

[Chorus]

**G  **D   E
Youoooooooooo, you're a catch 22
G      D        E
Win or lose I'm screwed
    C                  G
I'm trapped under your spell
G  D         C              D
It saves me, breaks me 'til I fall back to
-5-7777777-5-7777777-5-7777777-5-----7-----3-------|
---------------------------------------------------|
---------------------------------------------------|
---------------------------------------------------|
---------------------------------------------------|
---------------------------------------------------|
You    oo   oo   oo   oo   oo  You're a catch 22
-5-7777777-55555555-3---------|
-------------------------11---|
------------------------------|
------------------------------|
------------------------------|
------------------------------|
Win or lose I'm screwed
(no guitar)            **G
I'm trapped under your spell It
**D       E              C
saves me, breaks me 'til I fall back to
G    D     E
Youoooooooooo, you're a catch 22
---7777---7777---7777---12-10-8---|
----------------------------------|
--------77-----55-----55----------|
-55-----77-----55-----55----------|
-55-----55-----33-----33----------|
-33-------------------------------|
                      Win or lose I'm screwed
---10-10-10-10---10-10-10-10-------|
---12-12-12-12---12-12-12-12-------|
---------------77------------5555--|
-55------------77------------5555--|
-55------------55------------3333--|
-33--------------------------------|
Добавлено: 05.04.2017
Вам также может быть интересно:
Другие материалы по этой песне:
  • Аккорды и текст

Страница создана 05.04.2017
http://primanota.ru/5-seconds-of-summer/catch-22-chords.htm
Привет, Гость.
Предлагаем пройти революционный курс по гитаре.
Подарок от PrimaNota.Ru, забирай!