PrimaNota.ru - самый крупный в мире бесплатный архив песенных текстов, аккордов, табулатур и нот


4everfreebrony - Bend - таба, видео

Регистрация Запомнить меня
Войти через:  Facebook Google Twitter Vk Yandex Mail.ru

4everfreebrony - Bend - таба, видео

Печатать
Просмотров: 51
-------------------------------------------------------------------------------
                   Bend - 4everfreebrony (Garrison Ulrich)
-------------------------------------------------------------------------------
Tabbed by: MLPPonyThings
E-mail: thisoneemailthingwhatever@gmail.com

So its been over a year since this song was re-released by Garrison, and still no one has made a tab.  So 
I thought I would go ahead and do it.  This is an amazing song, and I wanna spread the love. :)
Re-recorded 2014 Version: https://www.youtube.com/watch?v=1Ngnh1qeQ_g (The tab is based off of this one.)
Original Song: https://www.youtube.com/watch?v=86l9v3QEjZQ

Tuning: Standard


e|--------8--5--7--------5-----------------------5--7-----7--8--7------------|
B|-----------------8--7-----8--5--4--7--5--7--8------------------------------|
G|---------------------------------------------------------------------------|
D|---------------------------------------------------------------------------|
A|---------------------------------------------------------------------------|
E|----0----------------------------------------------------------------------|

e|--------7h8p7p5--5h7p5--------------------------------5h7h8p7--------------|
B|----------------------8--7h8p7p5--4h5----5h7h8-----------------------------|
G|---------------------------------------------------------------------------|
D|---------------------------------------------------------------------------|
A|----0----------------------------------------------------------------------|
E|---------------------------------------------------------------------------|

e|--------7-----------------------------7--8--7--8/11--12p11--8\7------------|
B|-----------8--7--8--7-----------7--8---------------------------------------|
G|-----------------------9--8--9---------------------------------------------|
D|---------------------------------------------------------------------------|
A|---------------------------------------------------------------------------|
E|----7----------------------------------------------------------------------|  <--- The B note is played
                                                                                     with your thumb.
          Em       Dsus     A                Em       Dsus     A        Am                                     
e|---------------------------------------------------------------------------|
B|--------8--------5--------2----------------8--------5--------2--------1----|
G|--------9--------7--------2----------------9--------7--------2--------2----|
D|--------9--------7--------2----------------9--------7--------2--------2----| x4
A|--------7--------5--------0----------------7--------5--------0--------0----|
E|---------------------------------------------------------------------------|
          
          E        B        A                E        B        A        Am
e|---------------------------------------------------------------------------|
B|--------0--------7--------5----------------0--------7--------5--------5----|
G|--------1--------8--------6----------------1--------8--------6--------5----|
D|--------2--------9--------7----------------2--------9--------7--------7----| x2
A|--------2--------9--------7----------------2--------9--------7--------7----|
E|---------------------------------------------------------------------------|

          Em       Dsus     A                Em       Dsus     A        Am                                     
e|---------------------------------------------------------------------------|
B|--------8--------5--------2----------------8--------5--------2--------1----|
G|--------9--------7--------2----------------9--------7--------2--------2----|
D|--------9--------7--------2----------------9--------7--------2--------2----| x2
A|--------7--------5--------0----------------7--------5--------0--------0----|
E|---------------------------------------------------------------------------|




(INCOMPLETE!! WILL FINISH SOON!!)


************************************

| /   slide up
| \   slide down
| h   hammer-on
| p   pull-off

************************************
Добавлено: 06.05.2016
Другие материалы по этой песне:
  • Аккорды и текст

Страница создана 06.05.2016
http://primanota.ru/4everfreebrony/bend-chords.htm
Привет, Гость.
Предлагаем пройти революционный курс по гитаре.
Подарок от PrimaNota.Ru, забирай!