PrimaNota.ru - самый крупный в мире бесплатный архив песенных текстов, аккордов, табулатур и нот


44 - When Your Heart Stops Beating (ver 2) (album) - таба, видео

Регистрация Запомнить меня
Войти через:  Facebook Google Twitter Vk Yandex Mail.ru

44 - When Your Heart Stops Beating (ver 2) (album) - таба, видео

Печатать
Просмотров: 106
Now I didn't write these tabs, i just took the good +44
tabs and put em all together

1.) Lycanthrope
By: Stevie B

Intro
Guitar 1
e|----------------------------------------------------------------------|
B|----------------------------------------------------------------------|
G|--------------------------7-7-7-9-9-9-9-9-9-9-10-10-10-10-10-10-10-10-|
D|-10-7-7-7-7-7-7-7-7-7-7-7-7-7-7-9-9-9-9-9-9-9-10-10-10-10-10-10-10-10-|
A|-10-7-7-7-7-7-7-7-7-7-7-7-5-5-5-7-7-7-7-7-7-7-8--8--8--8--8--8--8--8--|
E|-8\ 5-5-5-5-5-5-5-5-5-5-5---------------------------------------------|

Guitar 2
e|-----------------------------------------------|
B|-----------------------------------------------|
G|-7-9-9-9-9-9-9-10-10-10-10-9-9-9-9-9-7-7-7-7-7-|
D|-----------------------------------------------|
A|-----------------------------------------------|
E|-----------------------------------------------|

e|-----------------------------------------------|
B|-----------------------------------10-10-10-10-|
G|-7-9-9-9-9-9-9-10-10-10-10-9-9-9-9-------------|
D|-----------------------------------------------|
A|-----------------------------------------------|
E|-----------------------------------------------|

Verse1
Guitar 1
e|----------------------------------------------------------------------|
B|----------------------------------------------------------------------|
G|--------------------------7-7-7-9-9-9-9-9-9-9-10-10-10-10-10-10-10-10-|
D|-10-7-7-7-7-7-7-7-7-7-7-7-7-7-7-9-9-9-9-9-9-9-10-10-10-10-10-10-10-10-|
A|-10-7-7-7-7-7-7-7-7-7-7-7-5-5-5-7-7-7-7-7-7-7-8--8--8--8--8--8--8--8--|
E|-8\ 5-5-5-5-5-5-5-5-5-5-5---------------------------------------------|

Chorus
Guitar 1
e|-----------------------------------------------------------|
B|-----------------------------------------------------------|
G|-5-5-5-5-5-5-5-7-7-7-7-7-7-7-------------------------------|
D|-5-5-5-5-5-5-5-7-7-7-7-7-7-7-7-7-7-7-7-7-7-7-7-7-7-7-7-7-7-|
A|-3-3-3-3-3-3-3-5-5-5-5-5-5-5-7-7-7-7-7-7-7-7-7-7-7-7-7-7-7-|
E|-----------------------------5-5-5-5-5-5-5-5-5-5-5-5-5-5-5-|

Guitar 2
e|-12--12-10-10-8-8-10-12--12-10-10-8-8-10-12--12-10-10-8-8-10-12-12-10-10-13-13-12-|
B|----------------------------------------------------------------------------------|
G|----------------------------------------------------------------------------------|
D|----------------------------------------------------------------------------------|
A|----------------------------------------------------------------------------------|
E|----------------------------------------------------------------------------------|

e|-12--12-10-10-8-8-10-12--12-10-10-8-8-10-12--12-10-10-8-8-10-10-7-7-8-8-5-5-5-|
B|------------------------------------------------------------------------------|
G|------------------------------------------------------------------------------|
D|------------------------------------------------------------------------------|
A|------------------------------------------------------------------------------|
E|------------------------------------------------------------------------------|

Verse 3
Guitar 2
e|--------------------------------------------------|
B|--------------------------------------------------|
G|-10--9-9~-------10--9-9~------>-9~-------10--9-9~-|
D|--------------------------------------------------|
A|--------------------------------------------------|
E|--------------------------------------------------|

Bridge
Guitar1
e|-----------------------------------------------------------|
B|-----------------------------------------------------------|
G|-5-5-5-5-5-5-5-7-7-7-7-7-7-7-------------------------------|
D|-5-5-5-5-5-5-5-7-7-7-7-7-7-7-7-7-7-7-7-7-7-7-7-7-7-7-7-7-7-|
A|-3-3-3-3-3-3-3-5-5-5-5-5-5-5-7-7-7-7-7-7-7-7-7-7-7-7-7-7-7-|
E|-----------------------------5-5-5-5-5-5-5-5-5-5-5-5-5-5-5-|

e|------------------------------------------------------|
B|------------------------------------------------------|
G|--5-12-10-9-10--7-12-10-9-5--10-9--10-12--10-9--10-12-|
D|--x-x--x--x-x---x-x--x--x-x--x--x--x--x---x--x--x--x--|
A|--3-10-8--7-8---5-10-8--7-3--8--7--8--10--8--7--8--10-|
E|------------------------------------------------------|

End on
Guitar 1
e|----|
B|----|
G|-17-|
D|-x--|
A|-15-|
E|----|

Guitar 2
e|----|
B|-13-|
G|----|
D|----|
A|----|
E|----|

| >  pickslide
| /  slide up
| \  slide down
| h  hammer-on
| p  pull-off
| ~  vibrato
| +  harmonic
| x  Mute note

2.) Baby Come On
By: xX_vengeance_Xx

intro
e|14-------------14--------14---------------|
b|---15--17--12-----15--------15--17--12----|
g|---------------------14-----------------12|
d|------------------------------------------|
a|------------------------------------------|
E|------------------------------------------|

verse
e|------------------------------------------------------|
b|------------------------------------------------------|
g|------------------------------------------------------|
d|----4-----4---4------4-----4--------------------------|
a|5-5---5-5---5----5-5---5-5---5-5---5-5---5---5-5---5-5|
E|---------------------------------3-----3---3-----3----|

verse (continued)
e|--------------------------------|
b|--------------------------------|
g|--------------------------------|2x
d|--------------------------------| dont play ,verse (continued),
a|----7-----7----------5-----5----| the secong time
E|5-5---5-5---5-5--3-3---3-3---3-3|

chorus
guitar I
e|-----------------------------------------------|
b|-----------------------------------------------|
g|-----------------------------------------------|3x
d|7-7-7-7-7-7-5-5-5-5-5-5-9-9-9-9-9-9-5-5-5-5-5-5|
a|7-7-7-7-7-7-5-5-5-5-5-5-9-9-9-9-9-9-5-5-5-5-5-5|
E|5-5-5-5-5-5-3-3-3-3-3-3-7-7-7-7-7-7-3-3-3-3-3-3|

chorus
guitar II
e|14-----------------------14-------------|
b|---15------------------------15---------|
g|---------------------------------14-----|3x
d|----------------------------------------|
a|----------------------------------------|
E|----------------------------------------|

verse II
guitar I
e|------------------------------------------------------|
b|------------------------------------------------------|
g|------------------------------------------------------|
d|----4-----4---4------4-----4--------------------------|
a|5-5---5-5---5----5-5---5-5---5-5---5-5---5---5-5---5-5|
E|---------------------------------3-----3---3-----3----|

verse (continued)
e|--------------------------------|
b|--------------------------------|
g|--------------------------------|2x
d|--------------------------------| dont play ,verse (continued),
a|----7-----7----------5-----5----| the secong time
E|5-5---5-5---5-5--3-3---3-3---3-3|

verse II
guitar II
e|----------------------------------------------------------|
b|----------------------------------------------------------|
g|----0-----0---0------0-7-7-7-7-7-7-6-6-6-6-4-4-4-4-4-4-4-4|(dont play the 
d|-----------------------x-x-x-x-x-x-x-x-x-x-x-x-x-x-x-x-x-x| open notes or 
a|-----------------------5-5-5-5-5-5-4-4-4-4-2-2-2-2-2-2-2-2| the last 2 
E|----------------------------------------------------------| notes the  
                                                              second time in
verse II                                                      the verse 
guitar II (continued)                                         part)
e|----------------------------------------------|
b|----------------------------------------------|
g|7-7-7-7-7-7-6-6-6\9/4-4-4-4-4-4-4-4--7~--7~-7~|
d|x-x-x-x-x-x-x-x-x\x/x-x-x-x-x-x-x-x--7~--5~-7~|
a|5-5-5-5-5-5-4-4-4\7/2-2-2-2-2-2-2-2--5~--5~-5~|
E|----------------------------------------------|

bridge
e|---------------------------|
b|---------------------------|
g|7-7-7-7-6-6-6-7-7-7-7-7-7-7|2x
d|x-x-x-x-x-x-x-x-x-x-x-x-x-x|
a|5-5-5-5-5-5-5-7-7-7-7-5-5-5|
E|---------------------------|

bridge
guitar I
e|---------------------------------------|
b|---------------------------------------|
g|7-7-7-7-6-6-6-7-7-7-7-7-7-7-7-7-7-7-7-7|
d|x-x-x-x-x-x-x-x-x-x-x-x-x-x-x-x-x-x-x-x|
a|5-5-5-5-5-5-5-7-7-7-7-5-5-5-5-5-5-5-5-5|
E|---------------------------------------|

bridge
guitar II
e|---------------------------------------|
b|---------------------------------------|
g|7-7-7-7-6-6-6-7-7-7-7-7-7-7-7-7-7-7-7-7|
d|7-7-7-7-7-7-7-7-7-7-7-7-7-7-7-7-7-7-7-7|
a|5-5-5-5-5-5-5-7-7-7-7-5-5-5-5-5-5-5-5-5|
E|---------------------------------------|

3.) When Your Heart Stops Beating
By: AvAaron182

NTRO x2 (listen to song for timing, the whole way through)
guitar 1                           End on this 2nd time, instead of 8&7
e|-------------------------------| e|-12-----|
b|-10------------------------8---| b|-----13-|
g|-----9-------9--------9-------7| g|--------|
d|----------7-------10-----------| d|--------|
a|-------------------------------| a|--------|
e|-------------------------------| e|--------|
guitar 2
e|-----------------|
b|-----------------|
g|-2-----5---------|
d|-2-----5----5----|
a|-0x16--3x8--5----|
e|------------3x8--|

VERSE x4
guitar 1
e|------------------------------|
b|------------------------------|
g|------------12-*-12-*-12-*-12-|
d|-2-----5----12-*-12-*-12-*-12-|
a|-0x16--3x8--10-*-10-*-10-*-10-|
e|------------------------------|
guitar 2
e|-----------------|
b|-----------------|
g|-----------------|
d|-2-----5---------|
a|-0x16--3x8--5----|
e|------------3x8--|

CHOURS x4
guitar 1
e|--------------------------------------------------------------|
b|--------------------------------------------------------------|
g|-9--5---7--5-----9--5----7--5----9--5----7--5----9--5----7--5-|
d|--------------------------------------------------------------|
a|-7--3---5--3-----7--3----5--3----7--3----5--3----7--3----5--3-|
e|--------------------------------------------------------------|
on fourth time play this
e|----------------------------------------------------|
b|-8--5----6--5----8--5-------------------------------|
g|-9--5----7--5----9--5----10--10--9--9--10--10--9--9-|
d|----------------------------------------------------|
a|-7--3----5--3----7--3-----8---8--7--7---8---8--7--7-|
e|----------------------------------------------------|
guitar 2
e|---------------------|
b|---------------------|
g|------5---------2----|
d|-3----5----2----2----|
a|-3----3x8--2----0x8--|
e|-1x8-------0x8-------|
on fourth time play this
e|-----------------|
b|-----------------|
g|------5----------|
d|-3----5----2-----|
a|-3----3x8--2-----|
e|-1x8-------0x16--|


Repeat intro, but once instead twice

Repeat verse quietly and only twice instead of 4 times

Reapeat Chours, but instead on the fourth time play this
e|--------------------------------|
b|--------------------------------|
g|------5-------------------------|
d|-3----5----2-2-2-2-2-2-2-2--2-*-|
a|-3----3x8--2-2-2-2-2-2-2-2--2-*-|
e|-1x8-------0-0-0-0-0-0-0-0--0-*-|
listen to the song and you'll know what i mean

BRIDGE(i think),x2
guitar 1
e|------------------------|
b|------------------------|
g|-5-------5-------5----4-|
d|----2-------2-------2---|
a|------------------------|
e|------------------------|
guitar 2 (p.m)
e|--------------------------------------------|
b|--------------------------------------------|
g|--------------------------------------------|
d|-2-2-*--2-2-2-*--5-5-5-*--5---------------2-|(start over from there)
a|-0-0-*--0-0-0-*--3-3-3-*--3-5-5-5-5-5-5-5-0-|
e|----------------------------3-3-3-3-3-3-3---|

BRIDGE(again? i think)
both guitars
e|--------------------------------------------------------------|
b|--------------------------------------------------------------|
g|-2-2-2-2-*--2-2-2-2-*--5-5-5-5-*--------------------2-2-2-2-*-|
d|-2-2-2-2-*--2-2-2-2-*--5-5-5-5-*--5-5-5-5-5-5-5-5-5-2-2-2-2-*-|
a|-0-0-0-0-*--0-0-0-0-*--3-3-3-3-*--5-5-5-5-5-5-5-5-5-0-0-0-0-*-|
e|----------------------------------3-3-3-3-3-3-3-3-3-----------|

INTERLUDE(i guess), x3
guitar 1
e|---------------------------------------|
b|---------------------------------------|
g|-----------------------9----9-9--------|
d|-10-p9-h10----10-10-p9----------h10-p6-|
a|---------------------------------------|
e|---------------------------------------|
guitar 2
e|-----------------|
b|-----------------|
g|-2-----5---------|
d|-2-----5----5----|
a|-0x16--3x8--5----|
e|------------3x8--|

Repeat Chours x 6
and end on
e|-----|
b|-----|
g|-2~~-|
d|-2~~-|
a|-0~~-|
e|-----|

4.) Little Death
By: Patheticloser96 (Unregistered)

verse
E|-------------------------------------||
B|-----0--------0----------------------||
G|-------0~-------0~-------0~-------0~-||
D|-222------222---------00-------00----|| x2
A|-------------------33-------33-------||
E|-------------------------------------||

verse variation (timing & picking slightly different)
E|------------------------------------------------||
B|-----0-----0-----0-----0------------------------||
G|-------000---------000---------0000-------0000--||
D|-222---------222------------00---------00-------|| x2
A|-------------------------33---------33----------||
E|------------------------------------------------||

verse variation x4

chorus
E|------------------------------------||
B|------------------------------------||
G|------------------------------------||
D|-5555555555555555-2222222222222222--|| x4
A|-5555555555555555-2222222222222222--||
E|-3333333333333333-0000000000000000--||

verse variation x2
chorus

bridge (x2)
E|---------------------------------------------||
B|---------------------------------------------||
G|-7777777777-555-44-222-444-------------------||
D|-xxxxxxxxxx-xxx-xx-xxx-xxx-555-777-555-4444--||
A|-5555555555-333-22-000-222-xxx-xxx-xxx-xxxx--||
E|---------------------------333-555-333-2222--||

E|--------------------------------------||
B|--------------------------------------||
G|-7777777777-555-44-999999999999-4444--||
D|-xxxxxxxxxx-xxx-xx-xxxxxxxxxxxx-xxxx--||
A|-5555555555-333-22-777777777777-2222--||
E|--------------------------------------||

break (guitar 1)
E|-----7-----7-----7~--------||
B|---8-----8-----8-8~-7h8p7--||
G|-9-----9-----9-------------||
D|---------------------------|| x4
A|---------------------------||
E|---------------------------||

break (guitar 2)
E|-0~--------||
B|-0~--------||
G|-0~---5~---||
D|-2~---5~---|| x4
A|-2~---3~---||
E|-0~--------||

chorus

5.) 155
By: Thobi87

ntro  (GUITAR 1) (2x)   Time: (0:00)
|-----------------------|
|(16x)---(16x)----------|
|-10--------6-----------|
|-10--------6-----------|
|-8---------4-----------|
|-----------------------|
       (GUITAR 2) (2x)
|------------3-------3--------4------4-----|
|---------4-------4--------6-------6-------|
|-----5--------5--------6-------6----------|
|------------------------------------------|
|------------------------------------------|
|------------------------------------------|
(Make sure that notes don't overlap)

Verse (GUITAR 1) (2x)           (0:11)

|----------------------------|
|(16x)---(16x)---(16x)--(16x)|
|-10------6------10------8---|
|-10------6------10------8---|
|-8-------4------8-------6---|
|----------------------------|

      (GUITAR 2) (1x)           (0:24)
|------------3-------3--------4------4--------3------3--------------------|
|---------4-------4--------6-------6-------4------4-------4--4------4--4--|
|-----5--------5--------6-------6-------5------5-------3--------3---------|
|-------------------------------------------------------------------------|
|-------------------------------------------------------------------------|
|-------------------------------------------------------------------------|
-
Chorus (GUITAR 1)              (0:37)
|----------------------------|
|(16x)--(16x)--(16x)--(16x)--|
|----------------------6-----|
|--6-----5------3------6-----|
|--6-----6------3------4-----|
|--4-----3------1------------|

|---------------------------------|
|(16x)--(16x)--(16x)--(8x)--(8x)--|
|----------------------6----8-----|
|--6-----5------3------6----8-----|
|--6-----6------3------4----6-----|
|--4-----3------1-----------------|


Intro  (1:02) (without guitar 2)
Verse  (1:14)
Chorus (1:39)



Bridge (GUITAR 2)  (2x)        (2:04)
|------------3-------3--------4------4-----|
|---------4-------4--------6-------6-------|
|-----5--------5--------6-------6----------|
|------------------------------------------|
|------------------------------------------|
|------------------------------------------|

       (GUITAR 1)    (1x)     (2:10)
|--------------------------------------------------------|
|--------------------------------------------------------|
|-10--------6--------------------------------------------|
|-10--------6------figure out the strumming yourself-----|
|-8---------4--------------------------------------------|
|--------------------------------------------------------|
  
(GUITAR 2)                    (2:16)
|-------------------------------------------------------------|
|-------5-----5-----8----6---5------5-----5-----6-----6----5--|
|---6-6---6-6---6-6---6-6--6--6--6-6---6-6---6-6---6-6---6-6--|
|-------------------------------------------------------------|
|-------------------------------------------------------------|
|-------------------------------------------------------------|

|-------------------------------------------------------------|
|-------5-----5-----8----6---5------8-----8-----8-----8----5--|
|---6-6---6-6---6-6---6-6--6--6--6-6---6-6---6-6---6-6---6-6--|
|-------------------------------------------------------------|
|-------------------------------------------------------------|
|-------------------------------------------------------------|

Chorus x2  (2:28)  

End the last Chorus on F and fade out.


The Choruses are always played in the same way but during the last 
Chorus the little Solo of the bridge is played in the background as well.

6.) Lillian
By: HungLikeAsian

e|---0-----------0----------0-----------0--------|
b|--1-1---------1-1--1-----1-1---------1-1--1-0--|
g|-2---2-------2---2------2---2-------2----2----2|
d|3-----------3----------3-----------3-----------|
a|-----------------------------------------------|
e|-----------------------------------------------|

Verse
e|---0-----------0----------0-----------0--------|
b|--1-1---------1-1--------1-1---------1-1-------|
g|-2---2-------2---2------2---2-------2----2-----|
d|3-----------3----------------------------------|
a|-----------------------0-----------0-----------|
e|-----------------------------------------------|

e|---0-----------0----------0------------3-3-1-0-|
b|--1-1---------1-1--------1-1-------------------|
g|-2---2-------2---2------2---2-------2----------|
d|3-----------3----------------------------------|
a|-----------------------0-----------0-----------|
e|-----------------------------------------------|

Chorus
e|-----------------------------------------------|
b|-----------------------------------------------|
g|77777777-55555555------------------------------|
d|77777777-55555555-55555555---------------------|
a|55555555-33333333-55555555---------------------|
e|------------------33333333---------------------|

Bridge
e|-----------------------------------------------|
b|-----------------------------------------------|
g|55555555555555---------------------------------|
d|55555555555555-222222-333333-------------------|
a|33333333332222-000000-333333-------------------|
e|----------------------111111-------------------|

Outro

e|---------0---------------0----0----------------|
b|-1------1-1------1------1-1---1----------------|
g|--2-2------2------2-2------2--2----------------|
d|---3---------2-----3----------3----------------|
a|-------------0---------------------------------|
e|1------1--------1------1-----------------------|

7.) Cliff Diving
By: willythekid

-----------------------------------------------------------------------------
Intro:
-----------------------------------------------------------------------------

+Guitar 1+
-7777777777777777-55555555-3333333-3333-3333-3333-|
-8888888888888888-77777777-5555555-3333-5555-1111-|
--------------------------------------------------|
--------------------------------------------------|X2
--------------------------------------------------|
--------------------------------------------------|

+Guitar 2+
------------------------------------------------------|
------------------------------------------------------|
------------------------------------------------------|
------------------4444444444444444----------55555555--|X2
-5555555555555555-2222222222222222-22222222-33333333--|
-3333333333333333------------------00000000-----------|

-----------------------------------------------------------------------------
Verse:
-----------------------------------------------------------------------------

+Guitar 1+
------------------------------------------------------------------|
------------------------------------------------------------------|
------------------------------------------------------------------|
------------------------------------------------------------------|X2
----------------2222222222222222-----------------3333333333333333-|
3333333333333333----------------0000000000000000------------------|

-----------------------------------------------------------------------------
Chorus:
-----------------------------------------------------------------------------

+Both Guitars+
------------------------------|
------------------------------|
-5------------------22222222--|
-5-5-5-22-222222-X3-22222222--|
-3-5-5-22-222222----00000000--|
---3-3-00-000000--------------|

-----------------------------------------------------------------------------
Intro:
-----------------------------------------------------------------------------

+Guitar 1+
-7777777777777777-55555555-3333333-3333-3333-3333-|
-8888888888888888-77777777-5555555-3333-5555-1111-|
--------------------------------------------------|
--------------------------------------------------|
--------------------------------------------------|
--------------------------------------------------|

+Guitar 2+
------------------------------------------------------|
------------------------------------------------------|
------------------------------------------------------|
------------------4444444444444444----------55555555--|
-5555555555555555-2222222222222222-22222222-33333333--|
-3333333333333333------------------00000000-----------|

-----------------------------------------------------------------------------
Verse:
-----------------------------------------------------------------------------

+Guitar 1+
------------------------------------------------------------------|
------------------------------------------------------------------|
------------------------------------------------------------------|
------------------------------------------------------------------|X2
----------------2222222222222222-----------------3333333333333333-|
3333333333333333----------------0000000000000000------------------|

-----------------------------------------------------------------------------
Chorus:
-----------------------------------------------------------------------------

+Guitar 1+
------------------------------\- |
-------------------------------- |
-5------------------22222222---- |
-5-5-5-22-222222-X3-22222222---- |X2
-3-5-5-22-222222----00000000---- |
---3-3-00-000000---------------- |

+Guitar 2+
(come in while guitar one does the whole thing for the 2nd time)
-777777777777777777777777----|
-888888888888888888888888----|
-----------------------------|
-----------------------------|(just keep playing chord until
-----------------------------|  guitar 1 is done playing the
-----------------------------|  chorus for the 2nd time)

-----------------------------------------------------------------------------
Interlude:
-----------------------------------------------------------------------------

+Guitar 1+
-------------------|
-------------------|
-------------------|
-777-99999-444/5---|X6
-------------------|
-------------------|

+Guitar 2+
-5---5---3---3---5---5---3---3----|
---3---3---3---3---3---3---3---3--|
----------------------------------|
----------------------------------|
----------------------------------|
----------------------------------|

-555-77777-222/3--|
------------------|
------------------|
------------------|X2
------------------|
------------------|

-5---5---3---3---5---5---3---3----7777777-10//-|
---3---3---3---3---3---3---3---3--8888888--8//-|
-----------------------------------------------|
-----------------------------------------------|
-----------------------------------------------|
-----------------------------------------------|

-----------------------------------------------------------------------------
Chorus:
-----------------------------------------------------------------------------

+Guitar 1+
------------------------------\- |
-------------------------------- |
-5------------------22222222---- |
-5-5-5-22-222222-X3-22222222---- |X2
-3-5-5-22-222222----00000000---- |
---3-3-00-000000---------------- |

+Guitar 2+
(come in while guitar one does the whole thing for the 2nd time)
-777777777777777777777777----|
-888888888888888888888888----|
-----------------------------|
-----------------------------|(just keep playing chord until
-----------------------------|  guitar 1 is done playing the
-----------------------------|  chorus for the 2nd time)

-----------------------------------------------------------------------------
Outro:
-----------------------------------------------------------------------------

+Guitar 1+
--------------------------------------|
--------------------------------------|
--------------------------------------|
---------------------------55555555---|
-5555555555555555-22222222-33333333---| keep playing till end
-3333333333333333-00000000------------|

+Guitar 2+
(play whole part till end)
-5---5---3---3---5---5---3---3----|
---3---3---3---3---3---3---3---3--|
----------------------------------|
----------------------------------|
----------------------------------|
----------------------------------|

-555-77777-222/3--|
------------------|
------------------|
------------------|X2
------------------|
------------------|

-5---5---3---3---5---5---3---3----|
---3---3---3---3---3---3---3---3--|
----------------------------------|
----------------------------------|
----------------------------------|
----------------------------------|

8.) Interlude
By: ossi26

starting at 0:09:

e:|-------3--------3--------------------|
b:|-----1--------1----5--0--1---1--0--5-|
g:|---2--------2------------------------|
d:|-3--------3--------------------------|x 1
a:|-------------------------------------|
e:|-------------------------------------|


e:|--------3-------3---3--------------------|
b:|------1-------1---1----5--0--1---1--0--5-|
g:|----2-------2----------------------------|
d:|--3-------3------------------------------|x 4
a:|-----------------------------------------|
e:|-----------------------------------------|



e:|--------3-------3---3--0--0--------------|
b:|------1-------1---1----5--0--------------|
g:|----2-------2----------------------------|
d:|--3-------3------------------------------|x 1
a:|-----------------------------------------|
e:|-----------------------------------------|

9.) Weatherman (Acoustic)
By: Tomamo5

1st Guitar

Throughout the whole song

e|-------|
B|-------|
G|-2-----|
D|-2---3-|
A|-0---3-|
E|-----1-| or you can use:


e|-0---0-|
B|-0---0-|
G|-2---0-|
D|-2---3-|
A|-0---3-| It sounds nice with open strings too.
E|-0---1-| Or you can switch between them.


Theres also this weird bass synth type thing or summit that goes:

e|---------|
B|---------|
G|---------|
D|---------|
A|-0-------|
E|-----1-3-| The 3 is optional, I just like to use it =]


2nd Guitar

Intro/Verse 1

e|-----0-------|
B|---1-------3-|
G|-2-----------|
D|-------------|
A|-------------|
E|-------------|


1st Chorus

e|-0---0---0---1-0-    -0---0---0-0-----------|
B|-----------1-----    --1-1-1-1----3-3-1-1-0-|
G|----------------- x3 -----------------------|
D|-----------------    -----------------------|
A|-----------------    -----------------------|
E|-----------------    -----------------------|
PM           .                       . . . .

Im not entirely sure about the palm muted 1's but I do it anyway.
Also I like to bend the strings at the end of the chorus.


Verse 2

e|------------------3---------------------|
B|-1---3-----1---3-----1---3-----1---3----|
G|--------------------------------------0-|
D|----------------------------------------| x4
A|----------------------------------------|
E|----------------------------------------|


2nd Chorus

e|-0---0---0---1-0-          -0---0---0-0-----------|
B|--1-1-1-1--1-----          --1-1-1-1----3-3-1-1-0-|
G|-----------------          -----------------------|
D|----------------- x3 then: -----------------------| Both x2
A|-----------------          -----------------------|
E|-----------------          -----------------------|

This time you can hear the ones more clearly.
You dont have to palm mute it but you can if you want to.


Interlude

e|------------------------------------------------------------------|
B|------0--1--0-----------------------------0--1--0-----------------|
G|-2-----------------------0--2--------2-----------------------0--2-|
D|----2----------2----------------3-------2----------2--------------|
A|----------------------3-----------3-----------------------3-------|
E|------------------1-1---------------------------------1-1---------|


3rd Chorus

e|-0---0---0---1-0-          -0---0---0-0-----------|
B|--1-1-1-1--1-----          --1-1-1-1----3-3-1-1-0-|
G|-----------------          -----------------------|
D|----------------- x3 then: -----------------------|
A|-----------------          -----------------------|
E|-----------------          -----------------------|

You carry this on till the end.


3rd Guitar

3rd Chorus

e|------------------3---------------------|
B|-1---3-----1---3-----1---3-----1---3----|
G|--------------------------------------0-|
D|----------------------------------------|
A|----------------------------------------|
E|----------------------------------------|

Start this the second time on the 3rd Chorus till the end.

10.) No, It Isn't
By: Tyler The Great! (Unregistered)

*Intro and Verse*(On last bar of the verse, its open on the E and 2 on the A instead of the other three)
e|--------------------------------------------|
B|--------------------------------------------|
G|-66666666-----------------------------------|
D|-4444444477777777222222229999999------------|
A|---------55555555000000007777777------------|
E|--------------------------------------------| Play this over until the chorus

*Chorus*
e|----------------------------------------------------|
B|----------------------------------------------------|
G|---------------------6-6-66-------------------------|
D|-444444-4/6-77777777-4-4-44------7-7-77-7-7-77------|
A|-222222-2/4-55555555-------2-2-225-5-55-5-5-55------|
E|---------------------------0-0-00-------------------|

e|----------------------------------------------------|
B|----------------------------------------------------|
G|---------------------6-6-66-------------------------|
D|-444444-4/6-77777777-4-4-44------7-7-77-7-7-77------|
A|-222222-2/4-55555555-------2-2-225-5-55-4-4-44------|
E|---------------------------0-0-00-------------------|

*Intro and Verse again till Chorus*

*Chorus again*


*Bridge* Gtr.1
e|-----------------------------------|
B|-----------------------------------|
G|-----------------------------------|
D|-----------------4444444477777777--|
A|-77777777777777772222222255555555--|
E|-5555555555555555------------------|x4

*Bridge* Gtr.2
e|----------------0----|
B|---------------------|
G|--6-76-6-76-6-76--76-|
D|-7----7----7-----7---|
A|---------------------|
E|---------------------|x4

*Chorus Electric till end*

| /  slide up
| \  slide down
| h  hammer-on
| p  pull-off
| ~  vibrato
| +  harmonic
| x  Mute note

11.) Make You Smile (Lyrics included)
By: No_Falter08

tr.Legends:
~ - let it ring
* - artificial harmonics

Gtr.Tuning:Standard(Normal)

Intro:
e|----------------------------------|
B|------7---------7-----------------|
G|----7---7-----7---7------7-9-7~---| 2x
D|----------------------------------| 
A|-5~--------4~--------0~-----------|
E|----------------------------------|

Verse 1:The last time...
e|--------------|
B|--------------|
G|-7~-----------| 4x
D|-7~--7~--5~---|
A|-5~--7~--5~---|
E|-----5~--3~---|

Pre-Verse 2:
Gtr.1
e|-----------------------|
B|-----------------------|
G|-7~--------------------| 2x
D|-7~--7~--5~------------| Then
A|-5~--7~--5~--5-7-9-7---|
E|-----5~--3~------------|

Gtr.2:
e|-----5------5------5------5-2---|
B|-0-2----0-3----0-0----0-0-------| 2x 
G|--------------------------------| Then
D|--------------------------------| 
A|--------------------------------|
E|--------------------------------|

e|----------------------------------|
B|------7---------7-----------------|
G|----7---7-----7---7------7-9-7~---|
D|----------------------------------|
A|-5~--------4~--------0~-----------|
E|----------------------------------|

Verse 2:The first time...
Gtr.1:Play Verse 1
Gtr.2:
e|-----------------------------|
B|------7--------7-------------|
G|----7---7----7-------7-9-7---| 4x
D|-----------------------------|
A|-5~-------4~------0~---------|
E|-----------------------------|

Pre-Chorus:I dont...
Gtr.1:Continue playing Verse
Gtr.2:


Chorus:If I could...
Gtr.1
e|-------------------------------------|
B|-------------------------------------|
G|-7777------------7777-----------7~---|
D|-7777-2222-5555--7777-2222-5555-7~---|
A|-5555-2222-5555--5555-2222-5555-5~---|
E|------0000-3333-------0000-3333------|

Gtr.2
e|-----5------5------5------5-2---|
B|-0-2----0-3----0-0----0-0-------| 
G|--------------------------------| 2x Then
D|--------------------------------| 
A|--------------------------------|
E|--------------------------------|

Pre-Verse 3:
Gtr.1:Play Verse 1
Gtr.2
e|---------------------------------------------------------------|
B|-7*---------7*-----------7*-----------7*------------------7*---|
G|----7*---------5*--7*-----------7*-------5*--7*----------------| Dont' know how to play
D|-------7*--------------------7*--------------------7*--5*------| harmonics??So there's an
A|---------------------------------------------------------------| alternative below...
E|---------------------------------------------------------------|


e|-14--10---------14--15--10~----14-----10~----14-15--10~--------14~---|
B|---------10~-----------------------10-----------------------15-------|
G|---------------------------------------------------------14----------|
D|---------------------------------------------------------------------|
A|---------------------------------------------------------------------|
E|---------------------------------------------------------------------|

Verse 3:The next time...
Gtr.1:Play Verse 1


Repeat Pre-Chorus:
Repeat Chorus:

Outro:
Gtr.1:Last Chord:
e|------|
B|------|
G|-7~---|
D|-7~---|
A|-5~---|
E|------|

Gtr.2:Continue playing this prt 
e|-----5------5------5------5-2---|
B|-0-2----0-3----0-0----0-0-------| 
G|--------------------------------| Repeat
D|--------------------------------| Many Times...
A|--------------------------------|
E|--------------------------------|

End...


Make You Smile Lyrics:

Verse 1:
The last time I saw you, you turned away 
I couldn't see you with the Sun shining in my eyes 
I said "Hello" but you kept on walking 
Going deaf from the sound of the freeway 
The Last time I saw you, you turned away 
I couldn't hear you with your voice ringing in my ears 
Do you remember where we used to sleep at night 
I couldn't feel you, your always too far away 

Verse 2:
The first time I saw you, you turned away 
I couldn't see you with the smoke getting in my eyes 
I said "Hello" but you kept on walking 
Going deaf from the sound of the DJ 
The first time I saw you, you turned away 
I couldn't hear with the noise ringing in my ears 
Do you remember where we used to sleep at night 
I couldn't feel you, your always too far away 

Pre-Chorus:
I don't, don't wanna take you home 
Please don't, don't make me sleep alone 

Chorus:
If I could, I'd only want to make you smile 
If you would stay with me a while 

Verse 3:
The next time I see you, you'll turn away 
I'll say "Hello" but you'll keep on walking 
The next time I see you, you'll turn away 
Do you remember where we used to sleep at night,
I couldn't feel you, your always too far away 

Repeat Pre-Chorus:
Repeat Chorus:

12.) Chapter 13
By: Alex Trimboli (Unregistered)

INTRO (Main Riff)

Guitar I

|---------------------------|--------------------------|
|---------------------------|--------------------------|
|--11-11-11-11-11-11-11-10--|--11-11-11-11-11-11-10-9--|  
|--x--x--x--x--x--11-11-x---|--x--x--x--x--x--11-x--x--|             
|--9--9--9--9--9--9--9--9---|--9--9--9--9--9--9--9--9--|             
|---------------------------|--------------------------|            x2
                                                                          
|---------------------------------|---------------------------|       
|---------------------------------|--------------------2-2-2--|        
|--11-11-11-11-11-14-18-18-18-18--|-11-11-11-11-11-2-2-2-2-2--|    
|--x--x--x--x--x--x--x--x--x--x---|-x--x--x--x--x--2-2-0-0-0--|
|--9--9--9--9--9--12-16-16-16-16--|-9--9--9--9--9--0-0--------|
|---------------------------------|---------------------------|

Guitar II

|------------------------|--------------------| 
|------------------------|--------------------|
|--444444444444444444----|--2222222222222222--| x4
|--444444444444444444----|--2222222222222222--|
|--222222222222222222----|--0000000000000000--|
|------------------------|--------------------|


VERSE

|---------------------------|
|---------------------------|
|--11-11-11-11-11-11-11-11--| x7
|--x--x--x--x--x--x--x--x---|
|--9--9--9--9--9--9--9--9---|
|---------------------------|
                                      x2
|--------|
|--b2-2--|
|--b2-2--|
|--------|
|--------|
|--------|


CHORUS

|-------------------------------------------------------|
|-------------------------------------------------------|
|--7-7-7-7-7-7-7-7-7-7-7-7-7-7-7-7-7-7-7-7-7-7-7-7-7-6--|
|--x-x-x-x-x-x-x-x-x-x-x-x-x-x-x-x-x-x-x-x-x-x-x-x-7-x--|
|--5-5-5-5-5-5-5-5-5-5-5-5-5-5-5-5-5-5-5-5-5-5-5-5-5-5--|
|-------------------------------------------------------|

|-------------------------------------------|
|---------------------------------------10--|
|--11-11-11-11-11-11-11-11-11-11-10-h11-----|
|--x--x--x--x--x--x--x--x--x--x-------------|
|--9--9--9--9--9--9--9--9--9--9-------------|
|-------------------------------------------|

|--------------------------------------|
|--------------------------------------|
|--14-14-14-14-14-14-14-9-9-9-9-9-9-9--|
|--x--x--x--x--x--x--x--x-x-x-x-x-x-x--|
|--12-12-12-12-12-12-12-7-7-7-7-7-7-7--|
|--------------------------------------|

|-------------------------------------------------------|
|-------------------------------------------------------|
|--7-7-7-7-7-7-7-7-7-7-7-7-7-7-7-7-7-7-7-7-7-7-7-7-7-6--|
|--x-x-x-x-x-x-x-x-x-x-x-x-x-x-x-x-x-x-x-x-x-x-x-x-7-x--|
|--5-5-5-5-5-5-5-5-5-5-5-5-5-5-5-5-5-5-5-5-5-5-5-5-5-5--|
|-------------------------------------------------------|

|-------------------------------------------------------------|
|---------------------------------------10--------------------|
|--11-11-11-11-11-11-11-11-11-11-10-h11----14--14--14--14-14--|
|--x--x--x--x--x--x--x--x--x--x------------x---x---x---x--14--|
|--9--9--9--9--9--9--9--9--9--9------------12--12--12--12-12--|
|-------------------------------------------------------------|


POST CHORUS (Main Riff)

Guitar I

|---------------------------|--------------------------|
|---------------------------|--------------------------|
|--11-11-11-11-11-11-11-10--|--11-11-11-11-11-11-10-9--|  
|--x--x--x--x--x--11-11-x---|--x--x--x--x--x--11-x--x--|             
|--9--9--9--9--9--9--9--9---|--9--9--9--9--9--9--9--9--|             
|---------------------------|--------------------------|            
                                                                          
|---------------------------------|---------------------------|       
|---------------------------------|--------------------2-2-2--|        
|--11-11-11-11-11-14-18-18-18-18--|-11-11-11-11-11-2-2-2-2-2--|    
|--x--x--x--x--x--x--x--x--x--x---|-x--x--x--x--x--2-2-0-0-0--|
|--9--9--9--9--9--12-16-16-16-16--|-9--9--9--9--9--0-0--------|
|---------------------------------|---------------------------|

Guitar II

|------------------------|--------------------| 
|------------------------|--------------------|
|--444444444444444444----|--2222222222222222--| x2
|--444444444444444444----|--2222222222222222--|
|--222222222222222222----|--0000000000000000--|
|------------------------|--------------------|


VERSE

|---------------------------|
|---------------------------|
|--11-11-11-11-11-11-11-11--| x7
|--x--x--x--x--x--x--x--x---|
|--9--9--9--9--9--9--9--9---|
|---------------------------|
                                      x2
|--------|
|--b2-2--|
|--b2-2--|
|--------|
|--------|
|--------|


CHORUS

|-------------------------------------------------------|
|-------------------------------------------------------|
|--7-7-7-7-7-7-7-7-7-7-7-7-7-7-7-7-7-7-7-7-7-7-7-7-7-6--|
|--x-x-x-x-x-x-x-x-x-x-x-x-x-x-x-x-x-x-x-x-x-x-x-x-7-x--|
|--5-5-5-5-5-5-5-5-5-5-5-5-5-5-5-5-5-5-5-5-5-5-5-5-5-5--|
|-------------------------------------------------------|

|-------------------------------------------|
|---------------------------------------10--|
|--11-11-11-11-11-11-11-11-11-11-10-h11-----|
|--x--x--x--x--x--x--x--x--x--x-------------|
|--9--9--9--9--9--9--9--9--9--9-------------|
|-------------------------------------------|

|--------------------------------------|
|--------------------------------------|
|--14-14-14-14-14-14-14-9-9-9-9-9-9-9--|
|--x--x--x--x--x--x--x--x-x-x-x-x-x-x--|
|--12-12-12-12-12-12-12-7-7-7-7-7-7-7--|
|--------------------------------------|

|-------------------------------------------------------|
|-------------------------------------------------------|
|--7-7-7-7-7-7-7-7-7-7-7-7-7-7-7-7-7-7-7-7-7-7-7-7-7-6--|
|--x-x-x-x-x-x-x-x-x-x-x-x-x-x-x-x-x-x-x-x-x-x-x-x-7-x--|
|--5-5-5-5-5-5-5-5-5-5-5-5-5-5-5-5-5-5-5-5-5-5-5-5-5-5--|
|-------------------------------------------------------|

|-------------------------------------------------------------|
|---------------------------------------10--------------------|
|--11-11-11-11-11-11-11-11-11-11-10-h11----14--14--14--14-14--|
|--x--x--x--x--x--x--x--x--x--x------------x---x---x---x--14--|
|--9--9--9--9--9--9--9--9--9--9------------12--12--12--12-12--|
|-------------------------------------------------------------|


BRIDGE

Guitar I

|-----------------------------------------------|
|-----------------------------------------------|
|-------7-----7-----7-----7-----7-----7-----7---| x3
|-------7-----7-----7-----7-----7-----7-----7---|
|-r5-555-5-555-5-555-5-555-5-555-5-555-5-555-5--|
|-----------------------------------------------|

Guitar II

|------------------------------------------------------------------|
|--7---5---3--------/7--\5--\3--------/7--\5--\3--------7---5---3--|
|------------------------------------------------------------------|
|------------------------------------------------------------------|
|------------------------------------------------------------------|
|------------------------------------------------------------------|



Guitar I

|-----------------------------------|
|-----------------------------------|
|---7-----7-----7------------7-7-7--|
|---7-----7-----7------------7-7-7--|
|--5-555-5-555-5-55r5--------7-7-7--|
|-----------------------------------|


|-------------------------------|
|-------------------------------|
|--11-11-11-11-14--14-18-16-14--| x3
|--x--x--x--x--x---x--x--x--x---|     
|--9--9--9--9--12--12-16-14-12--|       
|-------------------------------|         
                                            x2
|-------------------------------|
|-------------------------------|         
|--11-11-11-11-14--14-----------|       
|--x--x--x--x--x---x--14-14-14--|     
|--9--9--9--9--12--12-x--x--x---|   
|---------------------12-12-12--|

|-------------------------------------------------------|
|-------------------------------------------------------|
|--11-11-11-11-11-11-11-11-11-11-11-11-11-11-11-11------|
|--x--x--x--x--x--x--x--x--x--x--x--x--x--x--x--x-------|
|--9--9--9--9--9--9--9--9--9--9--9--9--9--9--9--9-------|
|-------------------------------------------------------|

|-------------------|
|-------------------|
|--9-9-9-9-7-7-7-7--|
|--x-x-x-x-x-x-x-x--|
|--7-7-7-7-5-5-5-5--|
|-------------------|


VERSE 2

|------------------------------------------------|
|------------------------------------------------| x8
|--9/11-11-11-11/9-9-9-9-9\7-7-7-7-2-222----7----|
|--x/x--x--x--x/-x-x-x-x-x\x-x-x-x-2-222---7-----|
|--7/9--9--9--9/-7-7-7-7-7\5-5-5-5-0-000-5----5--|
|------------------------------------------------|

|---------|
|---------|
|--9/r11--|
|--x/rx---|
|--7/r9---|
|---------|



OUTRO (Acoustic)

|------------------------------------------------|
|------------------------------------------------| x2
|--9/11-11-11-11/9-9-9-9-9\7-7-7-7-2-222----7----|
|--x/x--x--x--x/-x-x-x-x-x\x-x-x-x-2-222---7-----|
|--7/9--9--9--9/-7-7-7-7-7\5-5-5-5-0-000-5----5--|
|------------------------------------------------|

|---------|
|---------|
|--9/r11--|
|--x/rx---|
|--7/r9---|
|---------|

============================================================

THE END! 
Добавлено: 27.02.2016
Другие материалы по этой песне:
  • Аккорды и текст

Страница создана 27.02.2016
http://primanota.ru/44/when-your-heart-stops-beating-ver-2-album-chords.htm
Привет, Гость.
Предлагаем пройти революционный курс по гитаре.
Подарок от PrimaNota.Ru, забирай!