PrimaNota.ru - самый крупный в мире бесплатный архив песенных текстов, аккордов, табулатур и нот


44 - When Your Heart Stops Beating (album) - таба, бас-таба, видео

Регистрация Запомнить меня
Войти через:  Facebook Google Twitter Vk Yandex Mail.ru

44 - When Your Heart Stops Beating (album) - таба, бас-таба, видео

Печатать
Просмотров: 148
When Your Heart Stops Beating +44

Lycanthrope
Intro 1 (GUITAR 1) (2x)
|-------------------------------------|
|(14x)---(3x)------(12x)-----(3x)-----|
|-5--------7-------9---------10-------|
|-X--------X-------X---- -----X-------|
|-3--------5-------7----------8-------|
|-------------------------------------|

Intro 2 (GUITAR 1) (2X)
Same as intro 1

Intro 2 (GUITAR 2) (2x)
First time :
|----------------------------------|
|-(14x)---(3x)---(12x)---(3x)------|
|--/9------10------9-------7-------|
|----------------------------------|
|----------------------------------|
|----------------------------------|

Second time :
|--------------------------------|
|-(14x)---(3x)---(12x)---(3x)----|
|--/9------10------9------14-----|
|--------------------------------|
|--------------------------------|
|--------------------------------|

Verse (BOTH GUITARS) (4x)
|------------------------------------|
|------------------------------------|
|-(14x)--(3x)---(16x)----------------|
|---7-----10------3------------------|
|---7-----10------3------------------|
|---5------8------1------------------|

sometimes you can hear guitar 2 doing:

|-----------------|
|-----------------|
|------9----------|
|-7-9-------------|
|-----------------|
|-----------------|
Intro 2 again
Verse again

Chorus (GUITAR 1) (4x)
|-------------------|
|--(8x)-------------|
|---5---(8x)--(16x)-|
|---5----5------7---|
|---3----5------7---|
|--------3------5---|

Chorus (GUITAR 2) (indefinate times)
|--13-13-11---------------|
|-------------13-15-------|
|-------------------------|
|-------------------------|
|-------------------------|
|-------------------------|

the 3rd and 6th time its

|--13-13-11-------------------------|
|-------------13-15-13-15-12--------|
|-----------------------------------|
|-----------------------------------|
|-----------------------------------|
|-----------------------------------|

Interlude (BOTH GUITARS) (2x)
|--------------------------------------------------|
|--------------------------------------------------|
|-5--12--10--9--10---5---12--10----9---5-----------|
|-X---X---X---X---x---X----X----X----X---x---------|
|-3--10---8---7---8---3---10---8----7---3----------|
|--------------------------------------------------|

|-------------------------------------|
|(14x)---(3x)------(12x)-----(3x)-----|
|-9--------10--------9---------7------|
|-X--------X---------X---- -----X-----|
|-7--------8---------7----------5-----|
|-------------------------------------|

then Chorus and intro till the end

End on
|-----|
|-----|
|-17--|
|-17--|
|-15--|
|-----|
------|
Baby Come On
Intro: Gtr. 1 (Feeble Dist. with some kind of chorus)
e|--2----------2------2--------------------|
B|----3-5-0~-----3------3-5-0~-------------|
G|-----------------2~----------------------|
D|---------------------------------4~ -----|
A|-----------------------------------------|
E|-----------------------------------------|


Verse: Gtr. 2 (Clean, almost acoustic sound)
                    (X4)
e|-----------------------------------------------------------------------------|
B|-----------------------------------------------------------------------------|
G|-----------------------------------------------------------------------------|
D|-------4--------------7---------0---------0--------0--------2-0--------------|
A|---5-5---5---(x3)-5-5----5--5-5----5--5-5---5--5-5---5--5-5------------------|
E|-----------------------------------------------------------------------------|

Verse
Gtr. 2
Start feedback 4 beats before chorus (Note D)

Chorus: 2 Heavily Distorted Guitars

Gtr. 1
e|------------------------------|-------------------------------------|
B|------------------------------|-------------------------------------|
G|--7---------------------------|-.--7--------------------------------|
D|--7-(x4)-5------9------5------|----7-(x4)--5------------------------|
A|--5------5 (x4)--9-(x4)--5-(x4)-|-.--5-------5-(x8)-----------------|
E|---------3------7------3------|-----------3-------------------------|

Chorus Gtr. 2 (Not Positive, but I hear it doing something) (x1)
e|--2-------2-----2-------2----------------------------------------------------|
B|----3-5-0---3-5---3-5-0---3333333333333333-----------------------------------|
G|-----------------------------------------------------------------------------|
D|-----------------------------------------------------------------------------|
A|-----------------------------------------------------------------------------|
E|-----------------------------------------------------------------------------|

Post-Chorus
Gtr. 2
e|-----------------------------------------------------------------------------|
B|-----------------------------------------------------------------------------|
G|-----------------------------------------------------------------------------|
D|------4-----5-----4------5-----4~----(x2)------------------------------------|
A|--5-5---5-5---5-5---5-5---5-5------------------------------------------------|
E|-----------------------------------------------------------------------------|

Verse 2

Verse: Gtr. 2 (Clean, almost acoustic sound)
                    (X4)
e|-----------------------------------------------------------------------------|
B|-----------------------------------------------------------------------------|
G|-----------------------------------------------------------------------------|
D|-------4--------------7---------0---------0--------0--------2-0--------------|
A|---5-5---5---(x3)-5-5----5--5-5----5--5-5---5--5-5---5--5-5------------------|
E|-----------------------------------------------------------------------------|

Gtr. 1
e|---------------------------------------------------------------------------------|
B|---------------------------------------------------------------------------------|
G|---------------------------------------------------------------------------------|
D|-5*-5*-5*-5*-5*-5*-5*-5*-- (Harmonics)-------------------------------------------|
A|-5*-5*-5*-5*-5*-5*-5*-5*---(X28, Or Until Chorus)--------------------------------|
E|---------------------------------------------------------------------------------|

Gtr. 3
e|-------------------------------------------------------------------------------|
B|-------------------------------------------------------------------------------|
G|--7------6----------------(X2)--7~--6~----7------6-----------------------------|
D|--x-(x8)--x-(x8)-----------------7~--7~----x-(x8)--x-(x8)----------------------|
A|--5------4--------5-(x16)-----------------5------4--------5-(x16)--------------|
E|------------------3---------------------------------------3--------------------|


Chorus: 2 Heavily Distorted Guitars

Gtr. 1
e|------------------------------|-------------------------------------|
B|------------------------------|-------------------------------------|
G|--7---------------------------|-.--7--------------------------------|
D|--7-(x4)-5------9------5------|----7-(x4)--5------------------------|
A|--5------5 (x4)--9-(x4)--5-(x4)-|-.--5-------5-(x8)-----------------|
E|---------3------7------3------|-----------3-------------------------|

Chorus Gtr. 2 (Not Positive, but I hear it doing something) (x1)
e|--2-------2-----2-------2----------------------------------------------------|
B|----3-5-0---3-5---3-5-0---3333333333333333-----------------------------------|
G|-----------------------------------------------------------------------------|
D|-----------------------------------------------------------------------------|
A|-----------------------------------------------------------------------------|
E|-----------------------------------------------------------------------------|

Bridge
gtr. 1
e|-------------------------------------|
B|-------------------------------------|
G|--7------6---------------------------|   (X4)
D|--7-(x8)--7-(x8)---5-----------------|
A|--5------4--------5-(x16)------------|
E|------------------3------------------|

Gtr. 2
e|---------------------------------------------------|
B|---------------------------------------------------|
G|--7~--7-7-7--6~--6-6-6--7~--11-11-11-9~-9-9-9------|    (X4)
D|--x---x-x-x--x---x-x-x--x----x--x--x---x-x-x-x-----|
A|--5~--5-5-5--4~--4-4-4--9~--9--9--9--7~-7-7-7------|
E|---------------------------------------------------|

Chorus: 2 Heavily Distorted Guitars

Gtr. 1
e|------------------------------|---------------------------------------|
B|------------------------------|---------------------------------------|      (X2)
G|--7---------------------------|-.--7----------------------------------|
D|--7-(x4)-5------9------5------|----7-(x4)--5--------------------------|
A|--5------5 (x4)--9-(x4)--5-(x4)-|-.--5-------5-(x8)-------------------|
E|---------3------7------3------|-----------3---------------------------|

Chorus Gtr. 2 (Not Positive, but I hear it doing something) (x1)
e|--2-------2-----2-------2-----------------------------------------|
B|----3-5-0---3-5---3-5-0---3333333333333333------------------------|    (X2)
G|------------------------------------------------------------------|
D|------------------------------------------------------------------|
A|------------------------------------------------------------------|
E|------------------------------------------------------------------|

Final Chord (All Chorus guitars)

e|-----|
B|-----|
G|-7~--|
D|-7~--|
A|-5~--|
E|-----|
-------|
When your heart stops beating
Intro (2x)
|--------------------------------------8-----|
|-10--------------------10----------------10-|
|----9---9----9--12--------9---9----9--------|
|------7---10----------------7---10----------|
|-------------------10-----------------------|
|--------------------------------------------|


Verse (4x)
|------------------------------------|
|------------------------------------|
|------------------55555555----------|
|-7777777777777777-55555555-55555555-|
|-7777777777777777-33333333-55555555-|
|-5555555555555555----------33333333-|


Chorus (2x)
|-------------------------------------|
|-------------------------------------|
|----------55555555-------------------|
|-33333333-55555555-22222222-77777777-|
|-33333333-33333333-22222222-77777777-|
|-11111111----------00000000-55555555-|


Bridge 1
|--------------------------------|
|--------------------------------|
|-9-9-5--7-7-5---9-9-5--7-7-5----|
|--------------------------------|
|-7-7-3--5-5-3---7-7-3--5-5-3----|
|--------------------------------|

|---------------------------------|
|---------------------------------|
|-9-9-5--7-7-5--9-9-5--88-77-88-7-|
|---------------------------------|
|-7-7-3--5-5-3--7-7-3--66-55-66-5-|
|---------------------------------|


Bridge 2
|--------------------------------------8-----|
|-10--------------------10----------------10-|
|----9---9----9--12--------9---9----9--------|
|------7---10----------------7---10----------|
|-------------------10-----------------------|
|--------------------------------------------|


Verse (2x)
|------------------------------------|
|------------------------------------|
|------------------55555555----------|
|-7777777777777777-55555555-55555555-|
|-7777777777777777-33333333-55555555-|
|-5555555555555555----------33333333-|


Chorus (2x)
|-------------------------------------|
|-------------------------------------|
|----------55555555-------------------|
|-33333333-55555555-22222222-77777777-|
|-33333333-33333333-22222222-77777777-|
|-11111111----------00000000-55555555-|


Bridge 1
|--------------------------------|
|--------------------------------|
|-9-9-5--7-7-5---9-9-5--7-7-5----|
|--------------------------------|
|-7-7-3--5-5-3---7-7-3--5-5-3----|
|--------------------------------|

|--------------------------------|
|--------------------------------|
|-9-9-5--7-7-5--9-9-5--88-77-88-7|
|--------------------------------|
|-7-7-3--5-5-3--7-7-3--66-55-66-5|
|--------------------------------|


Bridge 2
|------------------------------------|
|------------------------------------|
|-5----5----5----4--5----5----5----4-|
|---7----7----7-------7----7----7----|
|------------------------------------|
|------------------------------------|

|----------------------------|
|----------------------------|
|-------------------5-5-5-5--|
|-7-7-7-7--7-7-7-7--5-5-5-5--|
|-7-7-7-7--7-7-7-7--3-3-3-3--|
|-5-5-5-5--5-5-5-5-----------|

|-------------------------|
|-------------------------|
|-------------------------|
|5-5-5-5-5-5-5-5--7-7-7-7-|
|5-5-5-5-5-5-5-5--7-7-7-7-|
|3-3-3-3-3-3-3-3--5-5-5-5-|


Bridge 3 (3x)
|------------------------------|
|------------------------------|
|------------------9--9-9------|
|-10-9-10--10-9-10--------10-9-|
|------------------------------|
|------------------------------|


Chorus (2x)
|-------------------------------------|
|-------------------------------------|
|----------55555555-------------------|
|-33333333-55555555-22222222-77777777-|
|-33333333-33333333-22222222-77777777-|
|-11111111----------00000000-55555555-|


Bridge 1 (4x)
|--------------------------------|
|--------------------------------|
|-9-9-5--7-7-5---9-9-5--7-7-5----|
|--------------------------------|
|-7-7-3--5-5-3---7-7-3--5-5-3----|
|--------------------------------|


End (Let Ring)
|---|
|---|
|---|
|-7-|
|-7-|
|-5-|
------------------------------------------------------------
little death
verse
E|-------------------------------------||
B|-----0--------0----------------------||
G|-------0~-------0~-------0~-------0~-||
D|-222------222---------00-------00----|| x2
A|-------------------33-------33-------||
E|-------------------------------------||

verse variation (timing & picking slightly different)
E|------------------------------------------------||
B|-----0-----0-----0-----0------------------------||
G|-------000---------000---------0000-------0000--||
D|-222---------222------------00---------00-------|| x2
A|-------------------------33---------33----------||
E|------------------------------------------------||

verse variation x4

chorus
E|------------------------------------||
B|------------------------------------||
G|------------------------------------||
D|-5555555555555555-2222222222222222--|| x4
A|-5555555555555555-2222222222222222--||
E|-3333333333333333-0000000000000000--||

verse variation x2
chorus

bridge (x2)
E|---------------------------------------------||
B|---------------------------------------------||
G|-7777777777-555-44-222-444-------------------||
D|-xxxxxxxxxx-xxx-xx-xxx-xxx-555-777-555-4444--||
A|-5555555555-333-22-000-222-xxx-xxx-xxx-xxxx--||
E|---------------------------333-555-333-2222--||

E|--------------------------------------||
B|--------------------------------------||
G|-7777777777-555-44-999999999999-4444--||
D|-xxxxxxxxxx-xxx-xx-xxxxxxxxxxxx-xxxx--||
A|-5555555555-333-22-777777777777-2222--||
E|--------------------------------------||

break (guitar 1)
E|-----7-----7-----7~--------||
B|---8-----8-----8-8~-7h8p7--||
G|-9-----9-----9-------------||
D|---------------------------|| x4
A|---------------------------||
E|---------------------------||

break (guitar 2)
E|-0~--------||
B|-0~--------||
G|-0~---5~---||
D|-2~---5~---|| x4
A|-2~---3~---||
E|-0~--------||

chorus
------------------------------------------------------------------------------------------------
155
Intro  (GUITAR 1) (2x)   Time: (0:00)
|-----------------------|
|(16x)---(16x)----------|
|-10--------6-----------|
|-10--------6-----------|
|-8---------4-----------|
|-----------------------|
       (GUITAR 2) (2x)
|------------3-------3--------4------4-----|
|---------4-------4--------6-------6-------|
|-----5--------5--------6-------6----------|
|------------------------------------------|
|------------------------------------------|
|------------------------------------------|
(Make sure that notes don't overlap)

Verse (GUITAR 1) (2x)           (0:11)

|----------------------------|
|(16x)---(16x)---(16x)--(16x)|
|-10------6------10------8---|
|-10------6------10------8---|
|-8-------4------8-------6---|
|----------------------------|

      (GUITAR 2) (1x)           (0:24)
|------------3-------3--------4------4--------3------3--------------------|
|---------4-------4--------6-------6-------4------4-------4--4------4--4--|
|-----5--------5--------6-------6-------5------5-------3--------3---------|
|-------------------------------------------------------------------------|
|-------------------------------------------------------------------------|
|-------------------------------------------------------------------------|
-
Chorus (GUITAR 1)              (0:37)
|----------------------------|
|(16x)--(16x)--(16x)--(16x)--|
|----------------------6-----|
|--6-----5------3------6-----|
|--6-----6------3------4-----|
|--4-----3------1------------|

|---------------------------------|
|(16x)--(16x)--(16x)--(8x)--(8x)--|
|----------------------6----8-----|
|--6-----5------3------6----8-----|
|--6-----6------3------4----6-----|
|--4-----3------1-----------------|


Intro  (1:02) (without guitar 2)
Verse  (1:14)
Chorus (1:39)

Bridge (GUITAR 2)  (2x)        (2:04)
|------------3-------3--------4------4-----|
|---------4-------4--------6-------6-------|
|-----5--------5--------6-------6----------|
|------------------------------------------|
|------------------------------------------|
|------------------------------------------|

       (GUITAR 1)    (1x)     (2:10)
|--------------------------------------------------------|
|--------------------------------------------------------|
|-10--------6--------------------------------------------|
|-10--------6------figure out the strumming yourself-----|
|-8---------4--------------------------------------------|
|--------------------------------------------------------|

(GUITAR 2)                    (2:16)
|-------------------------------------------------------------|
|-------5-----5-----8----6---5------5-----5-----6-----6----5--|
|---6-6---6-6---6-6---6-6--6--6--6-6---6-6---6-6---6-6---6-6--|
|-------------------------------------------------------------|
|-------------------------------------------------------------|
|-------------------------------------------------------------|

|-------------------------------------------------------------|
|-------5-----5-----8----6---5------8-----8-----8-----8----5--|
|---6-6---6-6---6-6---6-6--6--6--6-6---6-6---6-6---6-6---6-6--|
|-------------------------------------------------------------|
|-------------------------------------------------------------|
|-------------------------------------------------------------|

Chorus x2  (2:28)

End the last Chorus on F and fade out.
-------------------------------------------------------------------------------
lillian
Intro

e|---0-----------0----------0-----------0--------|
b|--1-1---------1-1--1-----1-1---------1-1--1-0--|
g|-2---2-------2---2------2---2-------2----2----2|
d|3-----------3----------3-----------3-----------|
a|-----------------------------------------------|
e|-----------------------------------------------|

Verse
e|---0-----------0----------0-----------0--------|
b|--1-1---------1-1--------1-1---------1-1-------|
g|-2---2-------2---2------2---2-------2----2-----|
d|3-----------3----------------------------------|
a|-----------------------0-----------0-----------|
e|-----------------------------------------------|

e|---0-----------0----------0------------3-3-1-0-|
b|--1-1---------1-1--------1-1-------------------|
g|-2---2-------2---2------2---2-------2----------|
d|3-----------3----------------------------------|
a|-----------------------0-----------0-----------|
e|-----------------------------------------------|

Chorus
e|-----------------------------------------------|
b|-----------------------------------------------|
g|77777777-55555555------------------------------|
d|77777777-55555555-55555555---------------------|
a|55555555-33333333-55555555---------------------|
e|------------------33333333---------------------|

Bridge
e|-----------------------------------------------|
b|-----------------------------------------------|
g|55555555555555---------------------------------|
d|55555555555555-222222-333333-------------------|
a|33333333332222-000000-333333-------------------|
e|----------------------111111-------------------|

Outro

e|---------0---------------0----0---------------------------------------------|
b|-1------1-1------1------1-1---1---------------------------------------------|
g|--2-2------2------2-2------2--2---------------------------------------------|
d|---3---------2-----3----------3---------------------------------------------|
a|-------------0--------------------------------------------------------------|
e|1------1--------1------1----------------------------------------------------|
------------------------------------------------------------------------------|
Cliff Diving
Intro
Guitar 1
e-------------------------------------------------------|
B-------------------------------------------------------|
G-------4-----------5-----------------------------------|
D-5-----4-8x--2-----5-8x--------------------------------|
A-5-8x--2-----2-8x--3-----------------------------------|
E-3-----------0-----------------------------------------|

Guitar 2
e-------------------------------------------------------|
B--8-x8--7-5-3-5-x8--3-5-1------------------------------| play 2x.
G-------------------------------------------------------|
D-------------------------------------------------------|
A-------------------------------------------------------|
E-------------------------------------------------------|

vers 1.
e-------------------------------------------------------|
B-------------------------------------------------------|
G-------------------------------------------------------|
D-5-----4-----2-----10----------------------------------|
A-5-8x--4-8x--2-8x--10-8x-------------------------------|
E-3-----2-----0------8----------------------------------|

Chorus
e-------------------------------------------------------|
B-------------------------------------------------------|
G-5-----------------------------------------------------|
D-5-1x--5-----2-----------------------------------------|
A-3-----5-2x--2-1x--------------------------------------|
E-------3-----0-----------------------------------------|

Vers 2.
e-------------------------------------------------------|
B-------------------------------------------------------|
G-------------------------------------------------------|
D-5-----4-----2-----10----------------------------------|
A-5-8x--4-8x--2-8x--10-8x-------------------------------|
E-3-----2-----0------8----------------------------------|

Last Chorus
e-------------------------------------------------------|
B-------------------------------------------------------|
G-5-----------------------------------------------------|
D-5-1x--5-----2-----------------------------------------|
A-3-----5-2x--2-1x--------------------------------------|
E-------3-----0-----------------------------------------|

Guitar 2.
e----------------------------------------------------------------------------|
B--10-x3--12-6x--7-3x--8---10-----10------8-----8----------------------------|
G------------------------------7------7-----7----7------| Play---------------| 2x
D----------------------------------------------------------------------------|
A----------------------------------------------------------------------------|
E----------------------------------------------------------------------------|
-----------------------------------------------------------------------------|
interlude

starting at 0:09:

e:|-------3--------3--------------------|
b:|-----1--------1----5--0--1---1--0--5-|
g:|---2--------2------------------------|
d:|-3--------3--------------------------|x 1
a:|-------------------------------------|
e:|-------------------------------------|


e:|--------3-------3---3--------------------|
b:|------1-------1---1----5--0--1---1--0--5-|
g:|----2-------2----------------------------|
d:|--3-------3------------------------------|x 4
a:|-----------------------------------------|
e:|-----------------------------------------|

e:|--------3-------3---3--0--0--------------------|
b:|------1-------1---1----5--0--------------------|
g:|----2-------2----------------------------------|
d:|--3-------3------------------------------|x 1--|
a:|-----------------------------------------------|
e:|-----------------------------------------------|
--------------------------------------------------|
weatherman
Chorus 1 (x2)
|-------------------------------------|
|-------------------------------------|
|-3333333333333333--------------------|
|-3333333333333333-4444444444444444---|
|-1111111111111111-4444444444444444---|
|------------------2222222222222222---|

Chorus 2 (x4)
|-------------------------------------|
|-------------------------------------|
|-3333333333333333--------------------|
|-3333333333333333-4444444444444444---|
|-1111111111111111-4444444444444444---|
|------------------2222222222222222---|

Outro/Last Chorus (Repeat Until End)
|-------------------------------------------------------------------------------------|
|-------------------------------------------------------------------------------------|
|-3333333333333333--------------------------------------------------------------------|
|-3333333333333333-4444444444444444---------------------------------------------------|
|-1111111111111111-4444444444444444---------------------------------------------------|
|------------------2222222222222222---------------------------------------------------|
--------------------------------------------------------------------------------------|
no it isnt
There is a Capo on the second fret, only on the Clean Guitar. Notes are in relation to Capo.

Whole song is played clean, except for the Final Chorus.



Intro/Verse:      Play whole thing twice.
e|--------------------------------------------------------------------------------------|
B|-0---0---0-0-0--0-0-0--0-0-0----0-00-000-000-000--------------------0-00-000-000-000--|
G|-0---0---0-0-0--0-0-0--0-0-0----0-00-000-000-000--0-00-000-000-000--0-00-000-000-000--|
D|-11--11--111111-111111-111111---7-77-777-777-777--0-00-000-000-000--9-99-999-999-999--|
A|-9---9---9-9-9--9-9-9--9-9-9----5-55-555-555-555--7-77-777-777-777--7-77-777-777-777--|
E|--------------------------------------------------5-55-555-555-555--------------------|
   ^ Those are eleven's.

e|--------------------------------------------------------------------------------------|
B|-0---0---0-0-0--0-0-0--0-0-0----0-00-000-000-000--------------------------------------|
G|-0---0---0-0-0--0-0-0--0-0-0----0-00-000-000-000--0-00-000-000-000--0-00-000-000-000--|
D|-11--11--111111-111111-111111---7-77-777-777-777--0-00-000-000-000--6-66-666-666-666--|
A|-9---9---9-9-9--9-9-9--9-9-9----5-55-555-555-555--7-77-777-777-777--7-77-777-777-777--|
E|--------------------------------------------------5-55-555-555-555--4-44-444-444-444--|
   ^ Those are eleven's.


Chorus:
e|---------------------------------------------------------------------------------|
B|-0-0-000-0000-0--0--0-00-000-000-000--0--0-0--0-0-0---0-00-000--0-00-000-000-000-|
G|-4-4-444-4444-4--0--0-00-000-000-000--0--0-0--0-0-0---0-00-000--0-00-000-000-000-|
D|-4-4-444-4444-4--6--7-77-777-777-777--11-1111-111111--9-99-999--7-77-777-777-777-|
A|-0-0-000-0000-0--4--5-55-555-555-555--9--9-9--9-9-9---7-77-777--5-55-555-555-555-|
E|---------------------------------------------------------------------------------|

e|----------------------------------------------------------------------------------|
B|-0-0-000-0000-0--0--0-00-000-000-000--0--0-0--0-0-0---0-00-000-0-00-000--0-00-000-|
G|-4-4-444-4444-4--0--0-00-000-000-000--0--0-0--0-0-0---0-00-000-0-00-000--0-00-000-|
D|-4-4-444-4444-4--6--7-77-777-777-777--11-1111-111111--9-99-999-7-77-777--7-77-777-|
A|-0-0-000-0000-0--4--5-55-555-555-555--9--9-9--9-9-9---7-77-777-5-55-555--4-44-444-|
E|----------------------------------------------------------------------------------|


Verse:          Play whole thing twice.
e|--------------------------------------------------------------------------------------|
B|-0---0---0-0-0--0-0-0--0-0-0----0-00-000-000-000--------------------0-00-000-000-000--|
G|-0---0---0-0-0--0-0-0--0-0-0----0-00-000-000-000--0-00-000-000-000--0-00-000-000-000--|
D|-11--11--111111-111111-111111---7-77-777-777-777--0-00-000-000-000--9-99-999-999-999--|
A|-9---9---9-9-9--9-9-9--9-9-9----5-55-555-555-555--7-77-777-777-777--7-77-777-777-777--|
E|--------------------------------------------------5-55-555-555-555--------------------|
   ^ Those are eleven's.

e|--------------------------------------------------------------------------------------|
B|-0---0---0-0-0--0-0-0--0-0-0----0-00-000-000-000--------------------------------------|
G|-0---0---0-0-0--0-0-0--0-0-0----0-00-000-000-000--0-00-000-000-000--0-00-000-000-000--|
D|-11--11--111111-111111-111111---7-77-777-777-777--0-00-000-000-000--6-66-666-666-666--|
A|-9---9---9-9-9--9-9-9--9-9-9----5-55-555-555-555--7-77-777-777-777--7-77-777-777-777--|
E|--------------------------------------------------5-55-555-555-555--4-44-444-444-444--|
   ^ Those are eleven's.


Chorus:
e|---------------------------------------------------------------------------------|
B|-0-0-000-0000-0--0--0-00-000-000-000--0--0-0--0-0-0---0-00-000--0-00-000-000-000-|
G|-4-4-444-4444-4--0--0-00-000-000-000--0--0-0--0-0-0---0-00-000--0-00-000-000-000-|
D|-4-4-444-4444-4--6--7-77-777-777-777--11-1111-111111--9-99-999--7-77-777-777-777-|
A|-0-0-000-0000-0--4--5-55-555-555-555--9--9-9--9-9-9---7-77-777--5-55-555-555-555-|
E|---------------------------------------------------------------------------------|

e|----------------------------------------------------------------------------------|
B|-0-0-000-0000-0--0--0-00-000-000-000--0--0-0--0-0-0---0-00-000-0-00-000--0-00-000-|
G|-4-4-444-4444-4--0--0-00-000-000-000--0--0-0--0-0-0---0-00-000-0-00-000--0-00-000-|
D|-4-4-444-4444-4--6--7-77-777-777-777--11-1111-111111--9-99-999-7-77-777--7-77-777-|
A|-0-0-000-0000-0--4--5-55-555-555-555--9--9-9--9-9-9---7-77-777-5-55-555--4-44-444-|
E|----------------------------------------------------------------------------------|

Bridge:

e|--------------------------------------|
B|-------------------0-00-000--0-00-000-|
G|--0-0-000-000-000--4-44-444--0-00-000-|
D|--0-0-000-000-000--4-44-444--7-77-777-|
A|--7-7-777-777-777--0-00-000--5-55-555-| x4
E|--5-5-555-555-555---------------------|

Final Chorus:    Distorted     Remember - No Capo.
e|------------------------------------------------------------------------------|
B|------------------------------------------------------------------------------|
G|------------------------------------------------------------------------------|
D|-4-4-444-4444-4--6--7-77-777-777-777-------------------------7-77-777-777-777-|
A|-2-2-222-2222-2--4--5-55-555-555-555--4--44--444--2--22-222--5-55-555-555-555-|
E|--------------------------------------2--22--222--0--00-000-------------------|

e|--------------------------------------------------------------------------------|
B|--------------------------------------------------------------------------------|
G|--------------------------------------------------------------------------------|
D|-4-4-444-4444-4--6--7-77-777-777-777-------------------------7-77-777--7-77-777-|
A|-2-2-222-2222-2--4--5-55-555-555-555--4--44--444--2--22-222--5-55-555--4-44-444-|
E|--------------------------------------2--22--222--0--00-000---------------------|

e|-----------------------------------------------------------------------------|
B|-----------------------------------------------------------------------------|
G|-----------------------------------------------------------------------------|
D|-4-4-444-4444-4--6--7-77-777-777-777-----------------------7-77-777-777-777--|
A|-2-2-222-2222-2--4--5-55-555-555-555--4-2-4-44-444-444-444-5-55-555-555-555--|
E|--------------------------------------2-0-2-22-222-222-222-------------------|

e|--------------------------------------------------------------------------|
B|--------------------------------------------------------------------------|
G|--------------------------------------------------------------------------|
D|--------------------7-77-777-777-777--------------------9-99-999-999-999--|
A|-44-2-444-444-444---5-55-555-555-555--7-77-777-777-777--7-77-777-777-777--|
E|-22-0-222-222-222---------------------5-55-555-555-555--------------------|

e|----------------------------------------------------------------------------|
B|----------------------------------------------------------------------------|
G|----------------------------------------------------------------------------|
D|----------------------7-77-777-777-777--------------------9-99-999-999-999--|
A|-44--44-444-444-444---5-55-555-555-555--7-77-777-777-777--7-77-777-777-777--|
E|-22--22-222-222-222---------------------5-55-555-555-555--------------------|

e|---------------------------------------------------------------------------------------|
B|---------------------------------------------------------------------------------------|
G|---------------------------------------------------------------------------------------|
D|--------------------7-77-777-777-7777---7~---------------------------------------------|
A|--4-44-444-444-444--5-55-555-555-5555---7~---------------------------------------------|
E|--2-22-222-222-222----------------------5~---------------------------------------------|
-----------------------------------------------------------------------------------------|
Make you smile
e|--------------------------|
B|-----7-------7-------5----|
G|---7---7---7---7-------7~-|(do this twice but on the second time, end it
D|-------------------0------|slower)
A|-5-------4-------0--------|
E|--------------------------|

Verse

e|-------------------------|
B|-------------------------|
G|-2~---4~-----------------|x4
D|-2~---4~---5~------------|
A|-0~---2~---5~------------|
E|-----------3~------------|

Interlude

e|------5-------------5-------------5--------0-h2-p0----|
B|---------3-------------3-------------3--------------3-|
G|-7-------------4--------------------------------------|x2
D|-7-------------4-------------5------------------------|
A|-5-------------2-------------5------------------------|
E|-----------------------------3------------------------|

e|----------------------------|
B|------7-------7-------5-----|
G|-7--7---7---7---7--------7~-|
D|-7------------------0-------|
A|-5-------4--------0---------|
E|----------------------------|

Verse

e|---------------------------|
B|-----7-------7------5------|
G|-7--7---7---7---7-------7~-|x4
D|-7-----------------0-------|
A|-5-------4--------0--------|
E|---------------------------|

Chorus

e|--------------------------|
B|--------------------------|
G|-7~-4~----7~-4~-----------|x2(If you want you could have another guitar
D|-7~-4~-5~-7~-4~-2h4-5~-55-|playing the first part of the interlude along
A|-5~-2~-5~-5~-2~-----5~-55-|with this)
E|-------3~-----------3~-33-|

Bridge(let ring)

e|-2------2-3----2-----2-3--------2-|
B|-----3------3------3-----3----3---|
G|---2-------------2----------2-----|
D|----------------------------------|
A|----------------------------------|
E|----------------------------------|

Verse

e|-------------------------|
B|-------------------------|
G|-2~---4~-----------------|
D|-2~---4~---5~------------|
A|-0~---2~---5~------------|
E|-----------3~------------|

e|------------------2-----|
B|---------------0-----3~-|
G|-2~---4~----------------|
D|-2~---4~---5~-----------|
A|-0~---2~---5~-----------|
E|-----------3~-----------|

e|------5-------------5---------------2----|
B|-----3----3--------3-----3-------0-----3-|
G|-2-------------4-------------------------|x2
D|-2-------------4-------------5-----------|
A|-0-------------2-------------5-----------|
E|-----------------------------3-----------|

Chorus
(let ring)
e|----5-------5-------5-------5-------5-------5-------5-------5--2-|
B|-3-----2-3-----3-0-----0-0-----0-3-----2-3-----3-0-----0-0-------|
G|-----------------------------------------------------------------|
D|-----------------------------------------------------------------|
A|-----------------------------------------------------------------|
E|-----------------------------------------------------------------|

e|---------------------------------------|
B|---------------------------------------|X6
G|-22222222---44444444-------------------|
D|-22222222---44444444-55555555-55555555-|
A|-00000000---22222222-55555555-55555555-|
E|---------------------33333333-33333333-|

Outro

(let ring)
e|----5-------5-------5-------5-------5-------5-------5-------5--2--|
B|-3-----2-3-----3-0-----0-0-----0-3-----2-3-----3-0-----0-0--------|
G|------------------------------------------------------------------|x3
D|------------------------------------------------------------------|
A|------------------------------------------------------------------|
E|------------------------------------------------------------------|
--------------------------------------------------------------------|
Chapter XIII

Guitar I

|---------------------------|--------------------------|
|---------------------------|--------------------------|
|--11-11-11-11-11-11-11-10--|--11-11-11-11-11-11-10-9--|
|--x--x--x--x--x--11-11-x---|--x--x--x--x--x--11-x--x--|
|--9--9--9--9--9--9--9--9---|--9--9--9--9--9--9--9--9--|
|---------------------------|--------------------------|            x2

|---------------------------------|---------------------------|
|---------------------------------|--------------------2-2-2--|
|--11-11-11-11-11-14-18-18-18-18--|-11-11-11-11-11-2-2-2-2-2--|
|--x--x--x--x--x--x--x--x--x--x---|-x--x--x--x--x--2-2-0-0-0--|
|--9--9--9--9--9--12-16-16-16-16--|-9--9--9--9--9--0-0--------|
|---------------------------------|---------------------------|

Guitar II

|------------------------|--------------------|
|------------------------|--------------------|
|--444444444444444444----|--2222222222222222--| x4
|--444444444444444444----|--2222222222222222--|
|--222222222222222222----|--0000000000000000--|
|------------------------|--------------------|


VERSE

|---------------------------|
|---------------------------|
|--11-11-11-11-11-11-11-11--| x7
|--x--x--x--x--x--x--x--x---|
|--9--9--9--9--9--9--9--9---|
|---------------------------|
                                      x2
|--------|
|--b2-2--|
|--b2-2--|
|--------|
|--------|
|--------|


CHORUS

|-------------------------------------------------------|
|-------------------------------------------------------|
|--7-7-7-7-7-7-7-7-7-7-7-7-7-7-7-7-7-7-7-7-7-7-7-7-7-6--|
|--x-x-x-x-x-x-x-x-x-x-x-x-x-x-x-x-x-x-x-x-x-x-x-x-7-x--|
|--5-5-5-5-5-5-5-5-5-5-5-5-5-5-5-5-5-5-5-5-5-5-5-5-5-5--|
|-------------------------------------------------------|

|-------------------------------------------|
|---------------------------------------10--|
|--11-11-11-11-11-11-11-11-11-11-10-h11-----|
|--x--x--x--x--x--x--x--x--x--x-------------|
|--9--9--9--9--9--9--9--9--9--9-------------|
|-------------------------------------------|

|--------------------------------------|
|--------------------------------------|
|--14-14-14-14-14-14-14-9-9-9-9-9-9-9--|
|--x--x--x--x--x--x--x--x-x-x-x-x-x-x--|
|--12-12-12-12-12-12-12-7-7-7-7-7-7-7--|
|--------------------------------------|

|-------------------------------------------------------|
|-------------------------------------------------------|
|--7-7-7-7-7-7-7-7-7-7-7-7-7-7-7-7-7-7-7-7-7-7-7-7-7-6--|
|--x-x-x-x-x-x-x-x-x-x-x-x-x-x-x-x-x-x-x-x-x-x-x-x-7-x--|
|--5-5-5-5-5-5-5-5-5-5-5-5-5-5-5-5-5-5-5-5-5-5-5-5-5-5--|
|-------------------------------------------------------|

|-------------------------------------------------------------|
|---------------------------------------10--------------------|
|--11-11-11-11-11-11-11-11-11-11-10-h11----14--14--14--14-14--|
|--x--x--x--x--x--x--x--x--x--x------------x---x---x---x--14--|
|--9--9--9--9--9--9--9--9--9--9------------12--12--12--12-12--|
|-------------------------------------------------------------|


POST CHORUS (Main Riff)

Guitar I

|---------------------------|--------------------------|
|---------------------------|--------------------------|
|--11-11-11-11-11-11-11-10--|--11-11-11-11-11-11-10-9--|
|--x--x--x--x--x--11-11-x---|--x--x--x--x--x--11-x--x--|
|--9--9--9--9--9--9--9--9---|--9--9--9--9--9--9--9--9--|
|---------------------------|--------------------------|

|---------------------------------|---------------------------|
|---------------------------------|--------------------2-2-2--|
|--11-11-11-11-11-14-18-18-18-18--|-11-11-11-11-11-2-2-2-2-2--|
|--x--x--x--x--x--x--x--x--x--x---|-x--x--x--x--x--2-2-0-0-0--|
|--9--9--9--9--9--12-16-16-16-16--|-9--9--9--9--9--0-0--------|
|---------------------------------|---------------------------|

Guitar II

|------------------------|--------------------|
|------------------------|--------------------|
|--444444444444444444----|--2222222222222222--| x2
|--444444444444444444----|--2222222222222222--|
|--222222222222222222----|--0000000000000000--|
|------------------------|--------------------|


VERSE

|---------------------------|
|---------------------------|
|--11-11-11-11-11-11-11-11--| x7
|--x--x--x--x--x--x--x--x---|
|--9--9--9--9--9--9--9--9---|
|---------------------------|
                                      x2
|--------|
|--b2-2--|
|--b2-2--|
|--------|
|--------|
|--------|


CHORUS

|-------------------------------------------------------|
|-------------------------------------------------------|
|--7-7-7-7-7-7-7-7-7-7-7-7-7-7-7-7-7-7-7-7-7-7-7-7-7-6--|
|--x-x-x-x-x-x-x-x-x-x-x-x-x-x-x-x-x-x-x-x-x-x-x-x-7-x--|
|--5-5-5-5-5-5-5-5-5-5-5-5-5-5-5-5-5-5-5-5-5-5-5-5-5-5--|
|-------------------------------------------------------|

|-------------------------------------------|
|---------------------------------------10--|
|--11-11-11-11-11-11-11-11-11-11-10-h11-----|
|--x--x--x--x--x--x--x--x--x--x-------------|
|--9--9--9--9--9--9--9--9--9--9-------------|
|-------------------------------------------|

|--------------------------------------|
|--------------------------------------|
|--14-14-14-14-14-14-14-9-9-9-9-9-9-9--|
|--x--x--x--x--x--x--x--x-x-x-x-x-x-x--|
|--12-12-12-12-12-12-12-7-7-7-7-7-7-7--|
|--------------------------------------|

|-------------------------------------------------------|
|-------------------------------------------------------|
|--7-7-7-7-7-7-7-7-7-7-7-7-7-7-7-7-7-7-7-7-7-7-7-7-7-6--|
|--x-x-x-x-x-x-x-x-x-x-x-x-x-x-x-x-x-x-x-x-x-x-x-x-7-x--|
|--5-5-5-5-5-5-5-5-5-5-5-5-5-5-5-5-5-5-5-5-5-5-5-5-5-5--|
|-------------------------------------------------------|

|-------------------------------------------------------------|
|---------------------------------------10--------------------|
|--11-11-11-11-11-11-11-11-11-11-10-h11----14--14--14--14-14--|
|--x--x--x--x--x--x--x--x--x--x------------x---x---x---x--14--|
|--9--9--9--9--9--9--9--9--9--9------------12--12--12--12-12--|
|-------------------------------------------------------------|


BRIDGE

Guitar I

|-----------------------------------------------|
|-----------------------------------------------|
|-------7-----7-----7-----7-----7-----7-----7---| x3
|-------7-----7-----7-----7-----7-----7-----7---|
|-r5-555-5-555-5-555-5-555-5-555-5-555-5-555-5--|
|-----------------------------------------------|

Guitar II

|------------------------------------------------------------------|
|--7---5---3--------/7--\5--\3--------/7--\5--\3--------7---5---3--|
|------------------------------------------------------------------|
|------------------------------------------------------------------|
|------------------------------------------------------------------|
|------------------------------------------------------------------|

Guitar I

|-----------------------------------|
|-----------------------------------|
|---7-----7-----7------------7-7-7--|
|---7-----7-----7------------7-7-7--|
|--5-555-5-555-5-55r5--------7-7-7--|
|-----------------------------------|


|-------------------------------|
|-------------------------------|
|--11-11-11-11-14--14-18-16-14--| x3
|--x--x--x--x--x---x--x--x--x---|
|--9--9--9--9--12--12-16-14-12--|
|-------------------------------|
                                            x2
|-------------------------------|
|-------------------------------|
|--11-11-11-11-14--14-----------|
|--x--x--x--x--x---x--14-14-14--|
|--9--9--9--9--12--12-x--x--x---|
|---------------------12-12-12--|

|-------------------------------------------------------|
|-------------------------------------------------------|
|--11-11-11-11-11-11-11-11-11-11-11-11-11-11-11-11------|
|--x--x--x--x--x--x--x--x--x--x--x--x--x--x--x--x-------|
|--9--9--9--9--9--9--9--9--9--9--9--9--9--9--9--9-------|
|-------------------------------------------------------|

|-------------------|
|-------------------|
|--9-9-9-9-7-7-7-7--|
|--x-x-x-x-x-x-x-x--|
|--7-7-7-7-5-5-5-5--|
|-------------------|


VERSE 2

|------------------------------------------------|
|------------------------------------------------| x8
|--9/11-11-11-11/9-9-9-9-9\7-7-7-7-2-222----7----|
|--x/x--x--x--x/-x-x-x-x-x\x-x-x-x-2-222---7-----|
|--7/9--9--9--9/-7-7-7-7-7\5-5-5-5-0-000-5----5--|
|------------------------------------------------|

|---------|
|---------|
|--9/r11--|
|--x/rx---|
|--7/r9---|
|---------|

OUTRO (Acoustic)

|------------------------------------------------|
|------------------------------------------------| x2
|--9/11-11-11-11/9-9-9-9-9\7-7-7-7-2-222----7----|
|--x/x--x--x--x/-x-x-x-x-x\x-x-x-x-2-222---7-----|
|--7/9--9--9--9/-7-7-7-7-7\5-5-5-5-0-000-5----5--|
|------------------------------------------------|

|---------|
|---------|
|--9/r11--|
|--x/rx---|
|--7/r9---|
|---------|
FF
Добавлено: 10.03.2016
Другие материалы по этой песне:
  • Аккорды и текст

Страница создана 27.02.2016
http://primanota.ru/44/when-your-heart-stops-beating-album-chords.htm
Привет, Гость.
Предлагаем пройти революционный курс по гитаре.
Подарок от PrimaNota.Ru, забирай!