PrimaNota.ru - самый крупный в мире бесплатный архив песенных текстов, аккордов, табулатур и нот


403 Forbiddena - Southern Cross - таба, видео

Регистрация Запомнить меня
Войти через:  Facebook Google Twitter Vk Yandex Mail.ru

403 Forbiddena - Southern Cross - таба, видео

Печатать
Просмотров: 170
-------------------------------------------------------------------------------
                             Southern Cross - 403 Forbiddena
-------------------------------------------------------------------------------
Tabbed by:I&guitars22802

E-mail:drakorthedragon@gmail.com

Tuning:Standard

links saying this is a real band:
http://www.facebook.com/pages/403-Forbiddena/38871055683
http://www.myspace.com/403forbiddena
http://www.tumblr.com/tagged/403%20forbiddena

had a bit of help with this video http://www.youtube.com/watch?v=K44WqGk1jCo

Gtr I (E A D G B E) - 'piano'
Gtr II (E A D G B E) - 'lead'
Gtr III (E A D G B E) - 'rythem'

Duration Legend
---------------
W - whole
H - half
Q - quarter
E - 8th
S - 16th
T - 32nd
X - 64th
+ - note tied to previous; . - note dotted;


 6/8
  Wx8
|--------|
|--------|
|--------|
|--------|
|--------|
|--------|


  Q.=100
 6/8
  Gtr I
  E E E E E E   E E E E E E   E E E E E E   E E E E E E   E E E E E E
|-------------|-------------|-------------|-------------|-------------|
|-------7-----|-------------|-------------|-------7-----|-------------|
|-----8---8---|-------8-----|-------7-----|-----8---8---|-------8-----|
|---8-------8-|-----9---9---|-----8---8---|---8-------8-|-----9---9---|
|-6-----------|---9-------9-|---8-------8-|-6-----------|---9-------9-|
|-------------|-7-----------|-6-----------|-------------|-7-----------|


  E E E E E E   E E E E E E
|-------------|-------------|
|-------7-----|-------------|
|-----8---8---|-------------|
|---8-------8-|-----9-----8-|
|-6-----------|---9-----8---|
|-------------|-7-----6-----|


  Q=180
 4/4
          Gtr II
  H.      S S S S   Q  Q  Q  Q    S S S S S S S S S S S S S S S S
|-----------------|-------------|---------------------------------|
|-----------------|-------------|---------------------------------|
|-8-------8-8-8-8-|-8--6--8-----|---------------------------------|
|-8-------8-8-8-8-|-8--6--8-----|-9-9-9-9-9-9-9-9-8-8-8-8-8-8-8-8-|
|-6-------6-6-6-6-|-6--4--6-----|-9-9-9-9-9-9-9-9-8-8-8-8-8-8-8-8-|
|-----------------|-------------|-7-7-7-7-7-7-7-7-6-6-6-6-6-6-6-6-|


  Q  Q  Q  Q    S S S S S S S S Q  S S S S   Q  Q  Q  E  E
|-------------|----------------------------|---------------|
|-------------|----------------------------|---------------|
|-8--6--8-----|-----------------8----------|-8--6--8--8-10-|
|-8--6--8-----|-9-9-9-9-8-8-8-8-8--8-8-8-8-|-8--6--8--8-10-|
|-6--4--6-----|-9-9-9-9-8-8-8-8-6--8-8-8-8-|-6--4--6--6--8-|
|-------------|-7-7-7-7-6-6-6-6----6-6-6-6-|---------------|


   Q   Q   Q  Q    E E H    Q    S S S S S S S S S S S S S S S S
|----------------|-------------|----------------------------------|
|----------------|-------------|----------------------------------|
|-11------11-----|-------------|----------------------------------|
|-11--11--11-----|-9-9---------|-8-8-8-8-8-8-8-8-8-8-8-8-8-8-8-8--|
|--9--11---9-----|-9-9---------|-8-8-8-8-8-8-8-8-8-8-8-8-8-8-8-8--|
|------9---------|-7-7---------|-6-6-6-6-6-6-6-6-6-6-6-6-6-6-6-6--|


  S S S S S S S S S S S S S S S S   E E E E E E E E   E E E E E E E E
|---------------------------------|-----------------|------------------|
|---------------------------------|-----------------|------------------|
|---------------------------------|-8-8-8-8-8-8-8-8-|------------------|
|-6-6-6-6-6-6-6-6-8-8-8-8-8-8-8-8-|-8-8-8-8-8-8-8-8-|-8-8-8-8-9-9-9-9--|
|-6-6-6-6-6-6-6-6-8-8-8-8-8-8-8-8-|-6-6-6-6-6-6-6-6-|-8-8-8-8-9-9-9-9--|
|-4-4-4-4-4-4-4-4-6-6-6-6-6-6-6-6-|-----------------|-6-6-6-6-7-7-7-7--|


   E  E  E  E  E  E  E  E   E E E E E E E E
|-------------------------|-----------------|
|-------------------------|-----------------|
|-------------------------|-----------------|
|-10-10-10-10-10-10-10-10-|-5-5-5-5-5-5-5-5-|
|-10-10-10-10-10-10-10-10-|-5-5-5-5-5-5-5-5-|
|--8--8--8--8--8--8--8--8-|-3-3-3-3-3-3-3-3-|


  E E E E E E E E   E E E E  E  E  E  E
|-----------------|---------------------|
|-----------------|---------------------|
|-----------------|---------------------|
|-6-6-6-6-8-8-8-8-|-5-5-5-5-10-10-10-10-|
|-6-6-6-6-8-8-8-8-|-5-5-5-5-10-10-10-10-|
|-4-4-4-4-6-6-6-6-|-3-3-3-3--8--8--8--8-|


  E E E E E E E E   E E E E E E E E   E E E E E E E E   E E E E E E E E
|-----------------|-----------------|-----------------|-----------------|
|-----------------|-----------------|-----------------|-----------------|
|-----------------|-----------------|-8-8-8-8-8-8-8-8-|-----------------|
|-6-6-6-6-6-6-6-6-|-8-8-8-8-8-8-8-8-|-8-8-8-8-8-8-8-8-|-8-8-8-8-9-9-9-9-|
|-6-6-6-6-6-6-6-6-|-8-8-8-8-8-8-8-8-|-6-6-6-6-6-6-6-6-|-8-8-8-8-9-9-9-9-|
|-4-4-4-4-4-4-4-4-|-6-6-6-6-6-6-6-6-|-----------------|-6-6-6-6-7-7-7-7-|


   E  E  E  E  E  E  E  E   E E E E E E E E
|-------------------------|-----------------|
|-------------------------|-----------------|
|-------------------------|-----------------|
|-10-10-10-10-10-10-10-10-|-5-5-5-5-5-5-5-5-|
|-10-10-10-10-10-10-10-10-|-5-5-5-5-5-5-5-5-|
|--8--8--8--8--8--8--8--8-|-3-3-3-3-3-3-3-3-|


  E E E E E E E E   E E E E  E  E  E  E   E E E E E E E E
|-----------------|---------------------|-----------------|
|-----------------|---------------------|-----------------|
|-----------------|---------------------|-----------------|
|-6-6-6-6-8-8-8-8-|-5-5-5-5-10-10-10-10-|-6-6-6-6-8-8-8-8-|
|-6-6-6-6-8-8-8-8-|-5-5-5-5-10-10-10-10-|-6-6-6-6-8-8-8-8-|
|-4-4-4-4-6-6-6-6-|-3-3-3-3--8--8--8--8-|-4-4-4-4-6-6-6-6-|


  S S S S S S S S S S S S S S S S   Q  H.
|---------------------------------|----------|
|---------------------------------|----------|
|-8-8-8-8-8-8-8-8-8-8-8-8-8-8-8-8-|-8--------|
|-8-8-8-8-8-8-8-8-8-8-8-8-8-8-8-8-|-8--------|
|-6-6-6-6-6-6-6-6-6-6-6-6-6-6-6-6-|-6--------|
|---------------------------------|----------|


  W          S S S S S S S S S S S S S S S S
|----------|---------------------------------|
|----------|---------------------------------|
|----------|-8-8-8-8-8-8-8-8-----------------|
|----------|-8-8-8-8-8-8-8-8-9-9-9-9-9-9-9-9-|
|----------|-6-6-6-6-6-6-6-6-9-9-9-9-9-9-9-9-|
|----------|-----------------7-7-7-7-7-7-7-7-|


   S  S  S  S  S  S  S  S S S S S S S S S   S S S S S S S S S S S S S S S S
|-----------------------------------------|---------------------------------|
|-----------------------------------------|---------------------------------|
|-----------------------------------------|-----------------8-8-8-8-8-8-8-8-|
|-11-11-11-11-11-11-11-11-8-8-8-8-8-8-8-8-|-9-9-9-9-9-9-9-9-8-8-8-8-8-8-8-8-|
|-11-11-11-11-11-11-11-11-8-8-8-8-8-8-8-8-|-9-9-9-9-9-9-9-9-6-6-6-6-6-6-6-6-|
|--9--9--9--9--9--9--9--9-6-6-6-6-6-6-6-6-|-7-7-7-7-7-7-7-7-----------------|


  S S S S S S S S S S S S S S S S   S S S S S S S S S S S S S S S S
|---------------------------------|---------------------------------|
|---------------------------------|---------------------------------|
|---------------------------------|-8-8-8-8-8-8-8-8-----------------|
|-9-9-9-9-9-9-9-9-8-8-8-8-8-8-8-8-|-8-8-8-8-8-8-8-8-9-9-9-9-9-9-9-9-|
|-9-9-9-9-9-9-9-9-8-8-8-8-8-8-8-8-|-6-6-6-6-6-6-6-6-9-9-9-9-9-9-9-9-|
|-7-7-7-7-7-7-7-7-6-6-6-6-6-6-6-6-|-----------------7-7-7-7-7-7-7-7-|


   S  S  S  S  S  S  S  S S S S S S S S S   S S S S S S S S S S S S S S S S
|-----------------------------------------|---------------------------------|
|-----------------------------------------|---------------------------------|
|-----------------------------------------|-----------------8-8-8-8-8-8-8-8-|
|-11-11-11-11-11-11-11-11-8-8-8-8-8-8-8-8-|-9-9-9-9-9-9-9-9-8-8-8-8-8-8-8-8-|
|-11-11-11-11-11-11-11-11-8-8-8-8-8-8-8-8-|-9-9-9-9-9-9-9-9-6-6-6-6-6-6-6-6-|
|--9--9--9--9--9--9--9--9-6-6-6-6-6-6-6-6-|-7-7-7-7-7-7-7-7-----------------|


  S S S S S S S S S S S S S S S S
|---------------------------------|
|---------------------------------|
|-----------------8-8-8-8-8-8-8-8-|
|-8-8-8-8-8-8-8-8-8-8-8-8-8-8-8-8-|
|-8-8-8-8-8-8-8-8-6-6-6-6-6-6-6-6-|
|-6-6-6-6-6-6-6-6-----------------|


  S S S S S S S S Q  S S S S   Q  Q  Q  Q
|----------------------------|-------------|
|----------------------------|-------------|
|-8-8-8-8-8-8-8-8-8--8-8-8-8-|-8--6--8-----|
|-8-8-8-8-8-8-8-8-8--8-8-8-8-|-8--6--8-----|
|-6-6-6-6-6-6-6-6-6--6-6-6-6-|-6--4--6-----|
|----------------------------|-------------|


  S S S S S S S S S S S S S S S S   Q  Q  Q  Q
|---------------------------------|-------------|
|---------------------------------|-------------|
|---------------------------------|-8--6--8-----|
|-9-9-9-9-9-9-9-9-8-8-8-8-8-8-8-8-|-8--6--8-----|
|-9-9-9-9-9-9-9-9-8-8-8-8-8-8-8-8-|-6--4--6-----|
|-7-7-7-7-7-7-7-7-6-6-6-6-6-6-6-6-|-------------|


  S S S S S S S S Q  S S S S   Q  Q  Q  E  E    Q   Q   Q  Q
|----------------------------|---------------|----------------|
|----------------------------|---------------|----------------|
|-----------------8----------|-8--6--8--8-10-|-11------11-----|
|-9-9-9-9-8-8-8-8-8--8-8-8-8-|-8--6--8--8-10-|-11--11--11-----|
|-9-9-9-9-8-8-8-8-6--8-8-8-8-|-6--4--6--6--8-|--9--11---9-----|
|-7-7-7-7-6-6-6-6----6-6-6-6-|---------------|------9---------|


  E E H    Q    S S S S S S S S S S S S S S S S
|-------------|---------------------------------|
|-------------|---------------------------------|
|-------------|---------------------------------|
|-9-9---------|-8-8-8-8-8-8-8-8-8-8-8-8-8-8-8-8-|
|-9-9---------|-8-8-8-8-8-8-8-8-8-8-8-8-8-8-8-8-|
|-7-7---------|-6-6-6-6-6-6-6-6-6-6-6-6-6-6-6-6-|


  S S S S S S S S S S S S S S S S   E E E E E E E E   E E E E E E E E
|---------------------------------|-----------------|------------------|
|---------------------------------|-----------------|------------------|
|---------------------------------|-8-8-8-8-8-8-8-8-|------------------|
|-6-6-6-6-6-6-6-6-8-8-8-8-8-8-8-8-|-8-8-8-8-8-8-8-8-|-8-8-8-8-9-9-9-9--|
|-6-6-6-6-6-6-6-6-8-8-8-8-8-8-8-8-|-6-6-6-6-6-6-6-6-|-8-8-8-8-9-9-9-9--|
|-4-4-4-4-4-4-4-4-6-6-6-6-6-6-6-6-|-----------------|-6-6-6-6-7-7-7-7--|


   E  E  E  E  E  E  E  E   E E E E E E E E
|-------------------------|-----------------|
|-------------------------|-----------------|
|-------------------------|-----------------|
|-10-10-10-10-10-10-10-10-|-5-5-5-5-5-5-5-5-|
|-10-10-10-10-10-10-10-10-|-5-5-5-5-5-5-5-5-|
|--8--8--8--8--8--8--8--8-|-3-3-3-3-3-3-3-3-|


  E E E E E E E E   E E E E  E  E  E  E
|-----------------|---------------------|
|-----------------|---------------------|
|-----------------|---------------------|
|-6-6-6-6-8-8-8-8-|-5-5-5-5-10-10-10-10-|
|-6-6-6-6-8-8-8-8-|-5-5-5-5-10-10-10-10-|
|-4-4-4-4-6-6-6-6-|-3-3-3-3--8--8--8--8-|


  E E E E E E E E   E E E E E E E E   E E E E E E E E   E E E E E E E E
|-----------------|-----------------|-----------------|-----------------|
|-----------------|-----------------|-----------------|-----------------|
|-----------------|-----------------|-8-8-8-8-8-8-8-8-|-----------------|
|-6-6-6-6-6-6-6-6-|-8-8-8-8-8-8-8-8-|-8-8-8-8-8-8-8-8-|-8-8-8-8-9-9-9-9-|
|-6-6-6-6-6-6-6-6-|-8-8-8-8-8-8-8-8-|-6-6-6-6-6-6-6-6-|-8-8-8-8-9-9-9-9-|
|-4-4-4-4-4-4-4-4-|-6-6-6-6-6-6-6-6-|-----------------|-6-6-6-6-7-7-7-7-|


   E  E  E  E  E  E  E  E   E E E E E E E E
|-------------------------|-----------------|
|-------------------------|-----------------|
|-------------------------|-----------------|
|-10-10-10-10-10-10-10-10-|-5-5-5-5-5-5-5-5-|
|-10-10-10-10-10-10-10-10-|-5-5-5-5-5-5-5-5-|
|--8--8--8--8--8--8--8--8-|-3-3-3-3-3-3-3-3-|


  E E E E E E E E   E E E E  E  E  E  E
|-----------------|---------------------|
|-----------------|---------------------|
|-----------------|---------------------|
|-6-6-6-6-8-8-8-8-|-5-5-5-5-10-10-10-10-|
|-6-6-6-6-8-8-8-8-|-5-5-5-5-10-10-10-10-|
|-4-4-4-4-6-6-6-6-|-3-3-3-3--8--8--8--8-|


  E E E E E E E E   S S S S S S S S S S S S S S S S   Q  H    Q
|-----------------|---------------------------------|-------------|
|-----------------|---------------------------------|-------------|
|-----------------|-8-8-8-8-8-8-8-8-8-8-8-8-8-8-8-8-|-8-----------|
|-6-6-6-6-8-8-8-8-|-8-8-8-8-8-8-8-8-8-8-8-8-8-8-8-8-|-8-----------|
|-6-6-6-6-8-8-8-8-|-6-6-6-6-6-6-6-6-6-6-6-6-6-6-6-6-|-6-----------|
|-4-4-4-4-6-6-6-6-|---------------------------------|-------------|


  W          S S S S S S S S S S S S S S S S
|----------|---------------------------------|
|----------|---------------------------------|
|----------|-5-5-5-5-5-5-5-5-5-5-5-5-5-5-5-5-|
|----------|-5-5-5-5-5-5-5-5-5-5-5-5-5-5-5-5-|
|----------|-3-3-3-3-3-3-3-3-3-3-3-3-3-3-3-3-|
|----------|---------------------------------|


  S S S S S S S S S S S S S S S S   S S S S S S S S S S S S S S S S
|---------------------------------|---------------------------------|
|---------------------------------|---------------------------------|
|---------------------------------|---------------------------------|
|-6-6-6-6-6-6-6-6-6-6-6-6-6-6-6-6-|-5-5-5-5-5-5-5-5-5-5-5-5-5-5-5-5-|
|-6-6-6-6-6-6-6-6-6-6-6-6-6-6-6-6-|-5-5-5-5-5-5-5-5-5-5-5-5-5-5-5-5-|
|-4-4-4-4-4-4-4-4-4-4-4-4-4-4-4-4-|-3-3-3-3-3-3-3-3-3-3-3-3-3-3-3-3-|


  S S S S S S S S S S S S S S S S   S S S S S S S S S S S S S S S S
|---------------------------------|---------------------------------|
|---------------------------------|---------------------------------|
|-5-5-5-5-5-5-5-5-----------------|-5-5-5-5-5-5-5-5-5-5-5-5-5-5-5-5-|
|-5-5-5-5-5-5-5-5-5-5-----5-5-----|-5-5-5-5-5-5-5-5-5-5-5-5-5-5-5-5-|
|-3-3-3-3-3-3-3-3-5-5-----5-5-----|-3-3-3-3-3-3-3-3-3-3-3-3-3-3-3-3-|
|-----------------3-3-----3-3-----|---------------------------------|


  S S S S S S S S S S S S S S S S   S S S S S S S S S S S S S S S S
|---------------------------------|---------------------------------|
|---------------------------------|---------------------------------|
|---------------------------------|---------------------------------|
|-6-6-6-6-6-6-6-6-6-6-6-6-6-6-6-6-|-5-5-5-5-5-5-5-5-5-5-5-5-5-5-5-5-|
|-6-6-6-6-6-6-6-6-6-6-6-6-6-6-6-6-|-5-5-5-5-5-5-5-5-5-5-5-5-5-5-5-5-|
|-4-4-4-4-4-4-4-4-4-4-4-4-4-4-4-4-|-3-3-3-3-3-3-3-3-3-3-3-3-3-3-3-3-|


  S S S S S S S S Q  Q     S  S  S  S  S  S  S  S  S  S  S  S  S  S  S  S
|-----------------------|-------------------------------------------------|
|-----------------------|-13-13-13-13-15-15-15-15-16-16-16-16-18S21-20-20-|
|-5-5-5-5-5-5-5-5-------|-------------------------------------------------|
|-5-5-5-5-5-5-5-5-5-----|-------------------------------------------------|
|-3-3-3-3-3-3-3-3-5-----|-------------------------------------------------|
|-----------------3-----|-------------------------------------------------|
|
|                         Gtr III
| W                        H                       H
|-----------------------|-------------------------------------------------|
|-----------------------|-------------------------------------------------|
|-----------------------|--------------------------5----------------------|
|-----------------------|--6-----------------------5----------------------|
|-----------------------|--6-----------------------3----------------------|
|-----------------------|--4----------------------------------------------|


   S  S  S  S  S  S  S  S  H
|-------------------------------|
|-18-18-16-16-15-15-15-15-13----|
|-------------------------------|
|-------------------------------|
|-------------------------------|
|-------------------------------|
|
|  H                       H
|-------------------------------|
|-------------------------------|
|--------------------------5----|
|--5-----------------------5----|
|--5-----------------------3----|
|--3----------------------------|


   S  S  S  S  S  S  S  S  S  S  S  S  S  S  S  S
|-11-11-11-11-13-13-13-13-14-14-14-14-16-16S19-19-|
|-------------------------------------------------|
|-------------------------------------------------|
|-------------------------------------------------|
|-------------------------------------------------|
|-------------------------------------------------|
|
|  H                       H
|-------------------------------------------------|
|-------------------------------------------------|
|--------------------------8----------------------|
|--9-----------------------8----------------------|
|--9-----------------------6----------------------|
|--7----------------------------------------------|


   S  S  E  S  S  S  S  H       E  E  E  E  E  E  E  E
|-18-18-16h18p16-14-13-11----|-11-13-14-11-13-14-16-13-|
|----------------------------|-------------------------|
|----------------------------|-------------------------|
|----------------------------|-------------------------|
|----------------------------|-------------------------|
|----------------------------|-------------------------|
|
|  H                    H       H           H
|----------------------------|-------------------------|
|----------------------------|-------------------------|
|-----------------------8----|-------------------------|
|--8--------------------8----|--9----------11----------|
|--8--------------------6----|--9----------11----------|
|--6-------------------------|--7-----------9----------|


                             >
   E  E  E  E  E  E  E  E    W
|-14-16-18-14-16-18-19-17-|-18----|
|-------------------------|-------|
|-------------------------|-------|
|-------------------------|-------|
|-------------------------|-------|
|-------------------------|-------|
|
|                            >
|  H           H             W
|-------------------------|-------|
|-------------------------|-------|
|-------------------------|-------|
|-13-----------9----------|--8----|
|-13-----------9----------|--8----|
|-11-----------7----------|--6----|


 6/8
  Wx9
|--------|
|--------|
|--------|
|--------|
|--------|
|--------|


  Q.=100
 6/8
  Gtr I
   E  E  E  E  E  E    E  E  E  E  E  E
|-------------------|-------------------|
|----------11-------|-------------------|
|-------12----12----|----------12-------|
|----12----------12-|-------13----13----|
|-10----------------|----13----------13-|
|-------------------|-11----------------|


   E  E  E  E  E  E    E  E  E  E  E  E    E  E  E  E  E  E
|-------------------|-------------------|-------------------|
|-------------------|----------11-------|-------------------|
|----------11-------|-------12----12----|----------12-------|
|-------12----12----|----12----------12-|-------13----13----|
|----12----------12-|-10----------------|----13----------13-|
|-10----------------|-------------------|-11----------------|


   E  E  E  E  E  E    E  E  E  E  E  E
|-------------------|-------------------|
|----------11-------|-------------------|
|-------12----12----|-------------------|
|----12----------12-|-------13-------12-|
|-10----------------|----13-------12----|
|-------------------|-11-------10-------|


  Q=180
 4/4
              Gtr II
   W           S  S  S  S  S  S  S  S  S  S  S  S  S  S  S  S
|-----------|-------------------------------------------------|
|-----------|-------------------------------------------------|
|-12--------|-------------------------------------------------|
|-12--------|-10-10-10-10-10-10-10-10-12-12-12-12-12-12-12-12-|
|-10--------|-10-10-10-10-10-10-10-10-12-12-12-12-12-12-12-12-|
|-----------|--8--8--8--8--8--8--8--8-10-10-10-10-10-10-10-10-|


   E  E  E  E  E  E  E  E
|-------------------------|
|-------------------------|
|-12-12-12-12-12-12-12-12-|
|-12-12-12-12-12-12-12-12-|
|-10-10-10-10-10-10-10-10-|
|-------------------------|


   E  E  E  E  E  E  E  E    E  E  E  E  E  E  E  E
|-------------------------|-------------------------|
|-------------------------|-------------------------|
|-------------------------|-------------------------|
|-12-12-12-12-13-13-13-13-|-14-14-14-14-14-14-14-14-|
|-12-12-12-12-13-13-13-13-|-14-14-14-14-14-14-14-14-|
|-10-10-10-10-11-11-11-11-|-12-12-12-12-12-12-12-12-|


  E E E E E E E E    E  E  E  E  E  E  E  E
|-----------------|-------------------------|
|-----------------|-------------------------|
|-----------------|-------------------------|
|-9-9-9-9-9-9-9-9-|-10-10-10-10-12-12-12-12-|
|-9-9-9-9-9-9-9-9-|-10-10-10-10-12-12-12-12-|
|-7-7-7-7-7-7-7-7-|--8--8--8--8-10-10-10-10-|


  E E E E  E  E  E  E    E  E  E  E  E  E  E  E    E  E  E  E  E  E  E  E
|---------------------|-------------------------|-------------------------|
|---------------------|-------------------------|-------------------------|
|---------------------|-------------------------|-------------------------|
|-9-9-9-9-14-14-14-14-|-10-10-10-10-10-10-10-10-|-12-12-12-12-12-12-12-12-|
|-9-9-9-9-14-14-14-14-|-10-10-10-10-10-10-10-10-|-12-12-12-12-12-12-12-12-|
|-7-7-7-7-12-12-12-12-|--8--8--8--8--8--8--8--8-|-10-10-10-10-10-10-10-10-|


   E  E  E  E  E  E  E  E    E  E  E  E  E  E  E  E
|-------------------------|-------------------------|
|-------------------------|-------------------------|
|-12-12-12-12-12-12-12-12-|-------------------------|
|-12-12-12-12-12-12-12-12-|-12-12-12-12-13-13-13-13-|
|-10-10-10-10-10-10-10-10-|-12-12-12-12-13-13-13-13-|
|-------------------------|-10-10-10-10-11-11-11-11-|


   E  E  E  E  E  E  E  E   E E E E E E E E
|-------------------------|-----------------|
|-------------------------|-----------------|
|-------------------------|-----------------|
|-14-14-14-14-14-14-14-14-|-9-9-9-9-9-9-9-9-|
|-14-14-14-14-14-14-14-14-|-9-9-9-9-9-9-9-9-|
|-12-12-12-12-12-12-12-12-|-7-7-7-7-7-7-7-7-|


   E  E  E  E  E  E  E  E   E E E E  E  E  E  E
|-------------------------|---------------------|
|-------------------------|---------------------|
|-------------------------|---------------------|
|-10-10-10-10-12-12-12-12-|-9-9-9-9-14-14-14-14-|
|-10-10-10-10-12-12-12-12-|-9-9-9-9-14-14-14-14-|
|--8--8--8--8-10-10-10-10-|-7-7-7-7-12-12-12-12-|


   E  E  E  E  E  E  E  E    E  E  E  E  E  E  E  E
|-------------------------|-------------------------|
|-------------------------|-------------------------|
|-------------------------|-12-12-12-12-12-12-12-12-|
|-10-10-10-10-12-12-12-12-|-12-12-12-12-12-12-12-12-|
|-10-10-10-10-12-12-12-12-|-10-10-10-10-10-10-10-10-|
|--8--8--8--8-10-10-10-10-|-------------------------|


   E  E  E  E  E  E  E  E    E  E  E  E  E  E  E  E
|-------------------------|-------------------------|
|-------------------------|-------------------------|
|-12-12-12-12-12-12-12-12-|-------------------------|
|-12-12-12-12-12-12-12-12-|-12-12-12-12-13-13-13-13-|
|-10-10-10-10-10-10-10-10-|-12-12-12-12-13-13-13-13-|
|-------------------------|-10-10-10-10-11-11-11-11-|


   E  E  E  E  E  E  E  E   E E E E E E E E
|-------------------------|-----------------|
|-------------------------|-----------------|
|-------------------------|-----------------|
|-14-14-14-14-14-14-14-14-|-9-9-9-9-9-9-9-9-|
|-14-14-14-14-14-14-14-14-|-9-9-9-9-9-9-9-9-|
|-12-12-12-12-12-12-12-12-|-7-7-7-7-7-7-7-7-|


   E  E  E  E  E  E  E  E   E E E E  E  E  E  E
|-------------------------|---------------------|
|-------------------------|---------------------|
|-------------------------|---------------------|
|-10-10-10-10-12-12-12-12-|-9-9-9-9-14-14-14-14-|
|-10-10-10-10-12-12-12-12-|-9-9-9-9-14-14-14-14-|
|--8--8--8--8-10-10-10-10-|-7-7-7-7-12-12-12-12-|


   E  E  E  E  E  E  E  E    E  E  E  E  E  E  E  E
|-------------------------|-------------------------|
|-------------------------|-------------------------|
|-------------------------|-------------------------|
|-10-10-10-10-10-10-10-10-|-12-12-12-12-12-12-12-12-|
|-10-10-10-10-10-10-10-10-|-12-12-12-12-12-12-12-12-|
|--8--8--8--8--8--8--8--8-|-10-10-10-10-10-10-10-10-|


   E  E  E  E  E  E  E  E    E  E  E  E  E  E  E  E
|-------------------------|-------------------------|
|-------------------------|-------------------------|
|-12-12-12-12-12-12-12-12-|-------------------------|
|-12-12-12-12-12-12-12-12-|-12-12-12-12-13-13-13-13-|
|-10-10-10-10-10-10-10-10-|-12-12-12-12-13-13-13-13-|
|-------------------------|-10-10-10-10-11-11-11-11-|


   E  E  E  E  E  E  E  E   E E E E E E E E
|-------------------------|-----------------|
|-------------------------|-----------------|
|-------------------------|-----------------|
|-14-14-14-14-14-14-14-14-|-9-9-9-9-9-9-9-9-|
|-14-14-14-14-14-14-14-14-|-9-9-9-9-9-9-9-9-|
|-12-12-12-12-12-12-12-12-|-7-7-7-7-7-7-7-7-|


   E  E  E  E  E  E  E  E   E E E E  E  E  E  E
|-------------------------|---------------------|
|-------------------------|---------------------|
|-------------------------|---------------------|
|-10-10-10-10-12-12-12-12-|-9-9-9-9-14-14-14-14-|
|-10-10-10-10-12-12-12-12-|-9-9-9-9-14-14-14-14-|
|--8--8--8--8-10-10-10-10-|-7-7-7-7-12-12-12-12-|


   E  E  E  E  E  E  E  E    E  E  E  E  E  E  E  E
|-------------------------|-------------------------|
|-------------------------|-------------------------|
|-------------------------|-12-12-12-12-12-12-12-12-|
|-10-10-10-10-12-12-12-12-|-12-12-12-12-12-12-12-12-|
|-10-10-10-10-12-12-12-12-|-10-10-10-10-10-10-10-10-|
|--8--8--8--8-10-10-10-10-|-------------------------|


   W           W           H     H       H     H
|-----------|-----------|-------------|-------------|
|-----------|-----------|-------------|-------------|
|-12--------|-----------|-------------|-15----14----|
|-12--------|-12--------|-13----15----|-15----14----|
|-10--------|-12--------|-13----15----|-13----12----|
|-----------|-10--------|-11----13----|-------------|


   E  E  E  E  E  E  E  E   E E E E E E E E
|-------------------------|------------------|
|-------------------------|------------------|
|-12-12-12-12-12-12-12-12-|-7-7-7-7-7-7-7-7--|
|-12-12-12-12-12-12-12-12-|-7-7-7-7-7-7-7-7--|
|-10-10-10-10-10-10-10-10-|-5-5-5-5-5-5-5-5--|
|-------------------------|------------------|


  E E E E E E E E    E  E  E  E  E  E  E  E
|-----------------|-------------------------|
|-----------------|-------------------------|
|-8-8-8-8-8-8-8-8-|-10-10-10-10-10-10-10-10-|
|-8-8-8-8-8-8-8-8-|-10-10-10-10-10-10-10-10-|
|-6-6-6-6-6-6-6-6-|--8--8--8--8--8--8--8--8-|
|-----------------|-------------------------|


   E  E  E  E  H       H.       S  S  S  S    W
|-------------------|----------------------|--------*|
|-------------------|----------------------|--------*|
|-10-10-10-10-10S===|=15-------15-15-15-15-|-15\----*|
|-10-10-10-10-10S===|=15-------15-15-15-15-|-15\----*|
|--8--8--8--8--8S===|=13-------13-13-13-13-|-13\----*|
|-------------------|----------------------|--------*|


************************************

| /   slide up
| \   slide down
| h   hammer-on
| p   pull-off
| ~   vibrato
| +   harmonic
| x   Mute note
| b   Bend
| pb  Pre-bend
| br  Bend release
| pbr Pre-bend release
| brb Bend release bend
Добавлено: 10.09.2013
Вам также может быть интересно:
Другие материалы по этой песне:
  • Аккорды и текст

Страница создана 07.06.2013
http://primanota.ru/403-forbiddena/southern-cross-chords.htm
Привет, Гость.
Предлагаем пройти революционный курс по гитаре.
Подарок от PrimaNota.Ru, забирай!