PrimaNota.ru - самый крупный в мире бесплатный архив песенных текстов, аккордов, табулатур и нот


403 Forbiddena - Northern Lights - таба, видео

Регистрация Запомнить меня
Войти через:  Facebook Google Twitter Vk Yandex Mail.ru

403 Forbiddena - Northern Lights - таба, видео

Печатать
Просмотров: 140
Words and Music by 403 Forbiddena
Arranged by 403 forbiddena
Transcribed by I&guitars22802

Gtr I (Eb Ab Db Gb Bb Eb) - 'lead'

Q=200
 4/4
  Gtr I
   |--3--|  |--3--|                  |--3--|  |--3--|
   Q  Q  Q  Q  Q  Q    H     H       Q  Q  Q  Q  Q  Q
|-------------------|-------------|-------------------|
|-13-13-13-13-15-17-|-------------|-------------------|
|-------------------|-16----------|-14-14-14-14-16-17-|
|-------------------|-------14----|-------------------|
|-------------------|-------------|-------------------|
|-------------------|-------------|-------------------|


                               |--3--|  |--3--|
   Q   S  S  S  +S   Q   Q     Q  Q  Q  Q  Q  Q
|---------------------------|-------------------|
|---------------------------|-13-13-13-13-15-17-|
|-17--17p16p14-(14)-16------|-------------------|
|-----------------------14--|-------------------|
|---------------------------|-------------------|
|---------------------------|-------------------|


   H      H       Q.    E  Q   E  E
|-------/15----|-17----20-19--17-16-|
|--------------|--------------------|
|-16-----------|--------------------|
|--------------|--------------------|
|--------------|--------------------|
|--------------|--------------------|


   ~~
               |--3--|  |--3--|                  |--3--|  |--3--|
   W           Q  Q  Q  Q  Q  Q    H     H       Q  Q  Q  Q  Q  Q
|-17--------|-------------------|-------------|--------------------|
|-----------|-13-13-13-13-15-17-|-------------|--------------------|
|-----------|-------------------|-16----------|-14-14-14-14-16-17--|
|-----------|-------------------|-------14----|--------------------|
|-----------|-------------------|-------------|--------------------|
|-----------|-------------------|-------------|--------------------|


                               |--3--|  |--3--|
   Q   S  S  S  +S   Q   Q     Q  Q  Q  Q  Q  Q
|---------------------------|-------------------|
|---------------------------|-13-13-13-13-15-17-|
|-17--17p16p14-(14)-16------|-------------------|
|-----------------------14--|-------------------|
|---------------------------|-------------------|
|---------------------------|-------------------|


   H      H       Q.    E  Q   E  E
|-------/15----|-17----20-19--17-16-|
|--------------|--------------------|
|-16-----------|--------------------|
|--------------|--------------------|
|--------------|--------------------|
|--------------|--------------------|


   ~~~~~~~~~~~~~~~~
   W           +H     H
|-17--------|-(17)---------|
|-----------|--------------|
|-----------|--------------|
|-----------|--------------|
|-----------|--------------|
|-----------|--------------|


 3/4
    PM------------------|     PM------------------|
  S S S S S S S S S S S S   S S S S S S S S S S S S
|-------------------------|-------------------------|
|-------------------------|-------------------------|
|-2-2-2-2-2-2-2-2-2-2-2-2-|-------------------------|
|-2-2-2-2-2-2-2-2-2-2-2-2-|-2-2-2-2-2-2-2-2-2-2-2-2-|
|-0-0-0-0-0-0-0-0-0-0-0-0-|-2-2-2-2-2-2-2-2-2-2-2-2-|
|-------------------------|-0-0-0-0-0-0-0-0-0-0-0-0-|


    PM------------------|               PM------------------|
  S S S S S S S S S S S S   Q  H      S S S S S S S S S S S S
|-------------------------|---------|-------------------------|
|-------------------------|---------|-------------------------|
|-2-2-2-2-2-2-2-2-2-2-2-2-|-2-------|-2-2-2-2-2-2-2-2-2-2-2-2-|
|-2-2-2-2-2-2-2-2-2-2-2-2-|-2-------|-2-2-2-2-2-2-2-2-2-2-2-2-|
|-0-0-0-0-0-0-0-0-0-0-0-0-|-0-------|-0-0-0-0-0-0-0-0-0-0-0-0-|
|-------------------------|---------|-------------------------|


    PM----------------|       PM------------------|
  S S S S S S S S S S S S   S S S S S S S S S S S S   Q  H
|-------------------------|-------------------------|---------|
|-------------------------|-------------------------|---------|
|-------------------------|-2-2-2-2-2-2-2-2-2-2-2-2-|-2-------|
|-2-2-2-2-2-2-2-2-2-2-2-2-|-2-2-2-2-2-2-2-2-2-2-2-2-|-2-------|
|-2-2-2-2-2-2-2-2-2-2-2-2-|-0-0-0-0-0-0-0-0-0-0-0-0-|-0-------|
|-0-0-0-0-0-0-0-0-0-0-0-0-|-------------------------|---------|


    PM------------------|     PM------------------|     PM------------------|
  S S S S S S S S S S S S   S S S S S S S S S S S S   S S S S S S S S S S S S
|-------------------------|-------------------------|--------------------------|
|-------------------------|-------------------------|--------------------------|
|-------------------------|-------------------------|-5-5-5-5-5-5-5-5-5-5-5-5--|
|-3-3-3-3-3-3-3-3-3-3-3-3-|-5-5-5-5-5-5-5-5-5-5-5-5-|-5-5-5-5-5-5-5-5-5-5-5-5--|
|-3-3-3-3-3-3-3-3-3-3-3-3-|-5-5-5-5-5-5-5-5-5-5-5-5-|-3-3-3-3-3-3-3-3-3-3-3-3--|
|-1-1-1-1-1-1-1-1-1-1-1-1-|-3-3-3-3-3-3-3-3-3-3-3-3-|--------------------------|


    PM------------------|     PM------------------|     PM------------------|
  S S S S S S S S S S S S   S S S S S S S S S S S S   S S S S S S S S S S S S
|-------------------------|-------------------------|--------------------------|
|-------------------------|-------------------------|--------------------------|
|-2-2-2-2-2-2-2-2-2-2-2-2-|-7-7-7-7-7-7-7-7-7-7-7-7-|-9-9-9-9-9-9-9-9-9-9-9-9--|
|-2-2-2-2-2-2-2-2-2-2-2-2-|-7-7-7-7-7-7-7-7-7-7-7-7-|-9-9-9-9-9-9-9-9-9-9-9-9--|
|-0-0-0-0-0-0-0-0-0-0-0-0-|-5-5-5-5-5-5-5-5-5-5-5-5-|-7-7-7-7-7-7-7-7-7-7-7-7--|
|-------------------------|-------------------------|--------------------------|


    PM------------------|               PM------------------|
  S S S S S S S S S S S S   Q  H      S S S S S S S S S S S S
|-------------------------|---------|-------------------------|
|-------------------------|---------|-------------------------|
|-2-2-2-2-2-2-2-2-2-2-2-2-|-2-------|-2-2-2-2-2-2-2-2-2-2-2-2-|
|-2-2-2-2-2-2-2-2-2-2-2-2-|-2-------|-2-2-2-2-2-2-2-2-2-2-2-2-|
|-0-0-0-0-0-0-0-0-0-0-0-0-|-0-------|-0-0-0-0-0-0-0-0-0-0-0-0-|
|-------------------------|---------|-------------------------|


    PM------------------|     PM------------------|
  S S S S S S S S S S S S   S S S S S S S S S S S S   Q  H
|-------------------------|-------------------------|---------|
|-------------------------|-------------------------|---------|
|-------------------------|-2-2-2-2-2-2-2-2-2-2-2-2-|-2-------|
|-2-2-2-2-2-2-2-2-2-2-2-2-|-2-2-2-2-2-2-2-2-2-2-2-2-|-2-------|
|-2-2-2-2-2-2-2-2-2-2-2-2-|-0-0-0-0-0-0-0-0-0-0-0-0-|-0-------|
|-0-0-0-0-0-0-0-0-0-0-0-0-|-------------------------|---------|


    PM------------------|     PM------------------|     PM------------------|
  S S S S S S S S S S S S   S S S S S S S S S S S S   S S S S S S S S S S S S
|-------------------------|-------------------------|--------------------------|
|-------------------------|-------------------------|--------------------------|
|-2-2-2-2-2-2-2-2-2-2-2-2-|-------------------------|-2-2-2-2-2-2-2-2-2-2-2-2--|
|-2-2-2-2-2-2-2-2-2-2-2-2-|-2-2-2-2-2-2-2-2-2-2-2-2-|-2-2-2-2-2-2-2-2-2-2-2-2--|
|-0-0-0-0-0-0-0-0-0-0-0-0-|-2-2-2-2-2-2-2-2-2-2-2-2-|-0-0-0-0-0-0-0-0-0-0-0-0--|
|-------------------------|-0-0-0-0-0-0-0-0-0-0-0-0-|--------------------------|


              PM------------------|     PM------------------|
  Q  H      S S S S S S S S S S S S   S S S S S S S S S S S S
|---------|-------------------------|-------------------------|
|---------|-------------------------|-------------------------|
|-2-------|-------------------------|-------------------------|
|-2-------|-3-3-3-3-3-3-3-3-3-3-3-3-|-5-5-5-5-5-5-5-5-5-5-5-5-|
|-0-------|-3-3-3-3-3-3-3-3-3-3-3-3-|-5-5-5-5-5-5-5-5-5-5-5-5-|
|---------|-1-1-1-1-1-1-1-1-1-1-1-1-|-3-3-3-3-3-3-3-3-3-3-3-3-|


    PM------------------|     PM------------------|
  S S S S S S S S S S S S   S S S S S S S S S S S S
|-------------------------|-------------------------|
|-------------------------|-------------------------|
|-5-5-5-5-5-5-5-5-5-5-5-5-|-2-2-2-2-2-2-2-2-2-2-2-2-|
|-5-5-5-5-5-5-5-5-5-5-5-5-|-2-2-2-2-2-2-2-2-2-2-2-2-|
|-3-3-3-3-3-3-3-3-3-3-3-3-|-0-0-0-0-0-0-0-0-0-0-0-0-|
|-------------------------|-------------------------|


    PM------------------|     PM------------------|
  S S S S S S S S S S S S   S S S S S S S S S S S S
|-------------------------|-------------------------|
|-------------------------|-------------------------|
|-7-7-7-7-7-7-7-7-7-7-7-7-|-9-9-9-9-9-9-9-9-9-9-9-9-|
|-7-7-7-7-7-7-7-7-7-7-7-7-|-9-9-9-9-9-9-9-9-9-9-9-9-|
|-5-5-5-5-5-5-5-5-5-5-5-5-|-7-7-7-7-7-7-7-7-7-7-7-7-|
|-------------------------|-------------------------|


    PM------------------|      PM----|      PM----|
  S S S S S S S S S S S S   Q  E E E E   Q  E E E E
|-------------------------|------------|------------|
|-------------------------|------------|------------|
|-2-2-2-2-2-2-2-2-2-2-2-2-|-2--2-2-2-2-|-2--2-2-2-2-|
|-2-2-2-2-2-2-2-2-2-2-2-2-|-2--2-2-2-2-|-2--2-2-2-2-|
|-0-0-0-0-0-0-0-0-0-0-0-0-|-0--0-0-0-0-|-0--0-0-0-0-|
|-------------------------|------------|------------|


 4/4
     PM--------|      PM--------|      PM--------|      PM--------|
  Q  E E E E E E   Q  E E E E E E   Q  E E E E E E   Q  E E E E E E
|----------------|----------------|----------------|-----------------|
|----------------|----------------|----------------|-----------------|
|----------------|----------------|-2--2-2-2-2-2-2-|-----------------|
|-3--3-3-3-3-3-3-|-2--2-2-2-2-2-2-|-2--2-2-2-2-2-2-|-5--5-5-5-5-5-5--|
|-3--3-3-3-3-3-3-|-2--2-2-2-2-2-2-|-0--0-0-0-0-0-0-|-5--5-5-5-5-5-5--|
|-1--1-1-1-1-1-1-|-0--0-0-0-0-0-0-|----------------|-3--3-3-3-3-3-3--|


     PM--------|      PM--------|      PM--------|
  Q  E E E E E E   Q  E E E E E E   Q  E E E E E E   H    H
|----------------|----------------|----------------|-----------|
|----------------|----------------|----------------|-----------|
|----------------|----------------|-5--5-5-5-5-5-5-|------2----|
|-3--3-3-3-3-3-3-|-5--5-5-5-5-5-5-|-5--5-5-5-5-5-5-|------2----|
|-3--3-3-3-3-3-3-|-5--5-5-5-5-5-5-|-3--3-3-3-3-3-3-|------0----|
|-1--1-1-1-1-1-1-|-3--3-3-3-3-3-3-|----------------|-----------|


     PM--------|      PM--------|      PM--------|
  Q  E E E E E E   Q  E E E E E E   Q  E E E E E E   H    H      H.      Q
|----------------|----------------|----------------|-----------|------------|
|----------------|----------------|----------------|-----------|------------|
|----------------|----------------|----------------|-2---------|------------|
|-3--3-3-3-3-3-3-|-5--5-5-5-5-5-5-|-2--2-2-2-2-2-2-|-2----5----|-3-------3--|
|-3--3-3-3-3-3-3-|-5--5-5-5-5-5-5-|-2--2-2-2-2-2-2-|-0----5----|-3-------3--|
|-1--1-1-1-1-1-1-|-3--3-3-3-3-3-3-|-0--0-0-0-0-0-0-|------3----|-1-------1--|


  H    H      W          +W
|-----------|----------|--------|
|-----------|----------|--------|
|-----------|-2--------|-(2)----|
|-4----4----|-2--------|-(2)----|
|-4----4----|-0--------|-(0)----|
|-2----2----|----------|--------|


    PM|      PM|         PM|     PM|      PM|    PM|      PM|    PM|
  Q E E   Q  E  E     Q  E  E  Q E E    Q E E  Q E E    Q E E  Q E E
|------------------|------------------|---------------|---------------|
|------------------|------------------|---------------|---------------|
|--------10-10-10--|-12-12-12--5-5-5--|-7-7-7---------|-4-4-4---------|
|-7-7-7--10-10-10--|-12-12-12--5-5-5--|-7-7-7--7-7-7--|-4-4-4--2-2-2--|
|-7-7-7---8--8--8--|-10-10-10--3-3-3--|-5-5-5--7-7-7--|-2-2-2--2-2-2--|
|-5-5-5------------|------------------|--------5-5-5--|--------0-0-0--|


    PM|      PM|         PM|     PM|      PM|    PM|      PM|
  Q E E   Q  E  E     Q  E  E  Q E E    Q E E  Q E E    Q E E  H
|------------------|------------------|---------------|-------------|
|------------------|------------------|---------------|-------------|
|--------10-10-10--|-12-12-12--5-5-5--|-7-7-7---------|-9-9-9-------|
|-7-7-7--10-10-10--|-12-12-12--5-5-5--|-7-7-7--7-7-7--|-9-9-9--7----|
|-7-7-7---8--8--8--|-10-10-10--3-3-3--|-5-5-5--7-7-7--|-7-7-7--7----|
|-5-5-5------------|------------------|--------5-5-5--|--------5----|


  H     H       H    H      H    H      H    H      H     H       H    H
|------------|------------|-----------|-----------|------------|------------|
|------------|------------|-----------|-----------|------------|------------|
|------10----|-12----5----|-7---------|-4---------|------10----|-12----5----|
|-7----10----|-12----5----|-7----7----|-4----2----|-7----10----|-12----5----|
|-7-----8----|-10----3----|-5----7----|-2----2----|-7-----8----|-10----3----|
|-5----------|------------|------5----|------0----|-5----------|------------|


                            |--3--|  |--3--|
  H    H      H    H        Q  Q  Q  Q  Q  Q    H     H
|-----------|-----------|--------------------|-------------|
|-----------|-----------|-/13-13-13-13-15-17-|-------------|
|-7---------|-9---------|--------------------|-16----------|
|-7----7----|-9----7----|--------------------|-------14----|
|-5----7----|-7----7----|--------------------|-------------|
|------5----|------5----|--------------------|-------------|


   |--3--|  |--3--|
   Q  Q  Q  Q  Q  Q    Q   S  S  S  +S   Q   Q
|-------------------|---------------------------|
|-------------------|---------------------------|
|-14-14-14-14-16-17-|-17--17p16p14-(14)-16------|
|-------------------|-----------------------14--|
|-------------------|---------------------------|
|-------------------|---------------------------|


   |--3--|  |--3--|
   Q  Q  Q  Q  Q  Q    H      H       Q.    E  Q   E  E
|-------------------|-------/15----|-17----20-19--17-16---|
|-13-13-13-13-15-17-|--------------|----------------------|
|-------------------|-16-----------|----------------------|
|-------------------|--------------|----------------------|
|-------------------|--------------|----------------------|
|-------------------|--------------|----------------------|


   ~~~~~~~~~~~~~~~~
   W           +H     H
|-17--------|-(17)---------|
|-----------|--------------|
|-----------|--------------|
|-----------|--------------|
|-----------|--------------|
|-----------|--------------|


 3/4
    PM------------------|     PM------------------|     PM------------------|
  S S S S S S S S S S S S   S S S S S S S S S S S S   S S S S S S S S S S S S
|-------------------------|-------------------------|-------------------------|
|-------------------------|-------------------------|-------------------------|
|-2-2-2-2-2-2-2-2-2-2-2-2-|-------------------------|-2-2-2-2-2-2-2-2-2-2-2-2-|
|-2-2-2-2-2-2-2-2-2-2-2-2-|-2-2-2-2-2-2-2-2-2-2-2-2-|-2-2-2-2-2-2-2-2-2-2-2-2-|
|-0-0-0-0-0-0-0-0-0-0-0-0-|-2-2-2-2-2-2-2-2-2-2-2-2-|-0-0-0-0-0-0-0-0-0-0-0-0-|
|-------------------------|-0-0-0-0-0-0-0-0-0-0-0-0-|-------------------------|


              PM------------------|
  Q  H      S S S S S S S S S S S S
|---------|-------------------------|
|---------|-------------------------|
|-2-------|-2-2-2-2-2-2-2-2-2-2-2-2-|
|-2-------|-2-2-2-2-2-2-2-2-2-2-2-2-|
|-0-------|-0-0-0-0-0-0-0-0-0-0-0-0-|
|---------|-------------------------|


    PM------------------|     PM------------------|
  S S S S S S S S S S S S   S S S S S S S S S S S S
|-------------------------|---------------------------|
|-------------------------|---------------------------|
|-------------------------|-2-2-2-2-2-2-2-2-2-2-2-2---|
|-2-2-2-2-2-2-2-2-2-2-2-2-|-2-2-2-2-2-2-2-2-2-2-2-2---|
|-2-2-2-2-2-2-2-2-2-2-2-2-|-0-0-0-0-0-0-0-0-0-0-0-0---|
|-0-0-0-0-0-0-0-0-0-0-0-0-|---------------------------|


              PM------------------|     PM------------------|
  Q  H      S S S S S S S S S S S S   S S S S S S S S S S S S
|---------|-------------------------|-------------------------|
|---------|-------------------------|-------------------------|
|-2-------|-------------------------|-------------------------|
|-2-------|-3-3-3-3-3-3-3-3-3-3-3-3-|-5-5-5-5-5-5-5-5-5-5-5-5-|
|-0-------|-3-3-3-3-3-3-3-3-3-3-3-3-|-5-5-5-5-5-5-5-5-5-5-5-5-|
|---------|-1-1-1-1-1-1-1-1-1-1-1-1-|-3-3-3-3-3-3-3-3-3-3-3-3-|


    PM------------------|     PM------------------|
  S S S S S S S S S S S S   S S S S S S S S S S S S
|-------------------------|-------------------------|
|-------------------------|-------------------------|
|-5-5-5-5-5-5-5-5-5-5-5-5-|-2-2-2-2-2-2-2-2-2-2-2-2-|
|-5-5-5-5-5-5-5-5-5-5-5-5-|-2-2-2-2-2-2-2-2-2-2-2-2-|
|-3-3-3-3-3-3-3-3-3-3-3-3-|-0-0-0-0-0-0-0-0-0-0-0-0-|
|-------------------------|-------------------------|


    PM------------------|     PM------------------|
  S S S S S S S S S S S S   S S S S S S S S S S S S
|-------------------------|-------------------------|
|-------------------------|-------------------------|
|-7-7-7-7-7-7-7-7-7-7-7-7-|-9-9-9-9-9-9-9-9-9-9-9-9-|
|-7-7-7-7-7-7-7-7-7-7-7-7-|-9-9-9-9-9-9-9-9-9-9-9-9-|
|-5-5-5-5-5-5-5-5-5-5-5-5-|-7-7-7-7-7-7-7-7-7-7-7-7-|
|-------------------------|-------------------------|


    PM------------------|
  S S S S S S S S S S S S   Q  H
|-------------------------|---------|
|-------------------------|---------|
|-2-2-2-2-2-2-2-2-2-2-2-2-|-2-------|
|-2-2-2-2-2-2-2-2-2-2-2-2-|-2-------|
|-0-0-0-0-0-0-0-0-0-0-0-0-|-0-------|
|-------------------------|---------|


    PM------------------|     PM------------------|     PM------------------|
  S S S S S S S S S S S S   S S S S S S S S S S S S   S S S S S S S S S S S S
|-------------------------|-------------------------|--------------------------|
|-------------------------|-------------------------|--------------------------|
|-2-2-2-2-2-2-2-2-2-2-2-2-|-------------------------|-2-2-2-2-2-2-2-2-2-2-2-2--|
|-2-2-2-2-2-2-2-2-2-2-2-2-|-2-2-2-2-2-2-2-2-2-2-2-2-|-2-2-2-2-2-2-2-2-2-2-2-2--|
|-0-0-0-0-0-0-0-0-0-0-0-0-|-2-2-2-2-2-2-2-2-2-2-2-2-|-0-0-0-0-0-0-0-0-0-0-0-0--|
|-------------------------|-0-0-0-0-0-0-0-0-0-0-0-0-|--------------------------|


              PM------------------|
  Q  H      S S S S S S S S S S S S
|---------|-------------------------|
|---------|-------------------------|
|-2-------|-2-2-2-2-2-2-2-2-2-2-2-2-|
|-2-------|-2-2-2-2-2-2-2-2-2-2-2-2-|
|-0-------|-0-0-0-0-0-0-0-0-0-0-0-0-|
|---------|-------------------------|


    PM------------------|     PM------------------|
  S S S S S S S S S S S S   S S S S S S S S S S S S
|-------------------------|---------------------------|
|-------------------------|---------------------------|
|-------------------------|-2-2-2-2-2-2-2-2-2-2-2-2---|
|-2-2-2-2-2-2-2-2-2-2-2-2-|-2-2-2-2-2-2-2-2-2-2-2-2---|
|-2-2-2-2-2-2-2-2-2-2-2-2-|-0-0-0-0-0-0-0-0-0-0-0-0---|
|-0-0-0-0-0-0-0-0-0-0-0-0-|---------------------------|


              PM------------------|     PM------------------|
  Q  H      S S S S S S S S S S S S   S S S S S S S S S S S S
|---------|-------------------------|-------------------------|
|---------|-------------------------|-------------------------|
|-2-------|-------------------------|-------------------------|
|-2-------|-3-3-3-3-3-3-3-3-3-3-3-3-|-5-5-5-5-5-5-5-5-5-5-5-5-|
|-0-------|-3-3-3-3-3-3-3-3-3-3-3-3-|-5-5-5-5-5-5-5-5-5-5-5-5-|
|---------|-1-1-1-1-1-1-1-1-1-1-1-1-|-3-3-3-3-3-3-3-3-3-3-3-3-|


    PM------------------|     PM------------------|     PM------------------|
  S S S S S S S S S S S S   S S S S S S S S S S S S   S S S S S S S S S S S S
|-------------------------|-------------------------|--------------------------|
|-------------------------|-------------------------|--------------------------|
|-5-5-5-5-5-5-5-5-5-5-5-5-|-2-2-2-2-2-2-2-2-2-2-2-2-|-7-7-7-7-7-7-7-7-7-7-7-7--|
|-5-5-5-5-5-5-5-5-5-5-5-5-|-2-2-2-2-2-2-2-2-2-2-2-2-|-7-7-7-7-7-7-7-7-7-7-7-7--|
|-3-3-3-3-3-3-3-3-3-3-3-3-|-0-0-0-0-0-0-0-0-0-0-0-0-|-5-5-5-5-5-5-5-5-5-5-5-5--|
|-------------------------|-------------------------|--------------------------|


    PM------------------|     PM------------------|      PM----|      PM----|
  S S S S S S S S S S S S   S S S S S S S S S S S S   Q  E E E E   Q  E E E E
|-------------------------|-------------------------|------------|------------|
|-------------------------|-------------------------|------------|------------|
|-9-9-9-9-9-9-9-9-9-9-9-9-|-2-2-2-2-2-2-2-2-2-2-2-2-|-2--2-2-2-2-|-2--2-2-2-2-|
|-9-9-9-9-9-9-9-9-9-9-9-9-|-2-2-2-2-2-2-2-2-2-2-2-2-|-2--2-2-2-2-|-2--2-2-2-2-|
|-7-7-7-7-7-7-7-7-7-7-7-7-|-0-0-0-0-0-0-0-0-0-0-0-0-|-0--0-0-0-0-|-0--0-0-0-0-|
|-------------------------|-------------------------|------------|------------|


 4/4
     PM--------|      PM--------|      PM--------|      PM--------|
  Q  E E E E E E   Q  E E E E E E   Q  E E E E E E   Q  E E E E E E
|----------------|----------------|----------------|-----------------|
|----------------|----------------|----------------|-----------------|
|----------------|----------------|-2--2-2-2-2-2-2-|-----------------|
|-3--3-3-3-3-3-3-|-2--2-2-2-2-2-2-|-2--2-2-2-2-2-2-|-5--5-5-5-5-5-5--|
|-3--3-3-3-3-3-3-|-2--2-2-2-2-2-2-|-0--0-0-0-0-0-0-|-5--5-5-5-5-5-5--|
|-1--1-1-1-1-1-1-|-0--0-0-0-0-0-0-|----------------|-3--3-3-3-3-3-3--|


     PM--------|      PM--------|      PM--------|
  Q  E E E E E E   Q  E E E E E E   Q  E E E E E E   H    H
|----------------|----------------|----------------|-----------|
|----------------|----------------|----------------|-----------|
|----------------|----------------|-5--5-5-5-5-5-5-|------2----|
|-3--3-3-3-3-3-3-|-5--5-5-5-5-5-5-|-5--5-5-5-5-5-5-|------2----|
|-3--3-3-3-3-3-3-|-5--5-5-5-5-5-5-|-3--3-3-3-3-3-3-|------0----|
|-1--1-1-1-1-1-1-|-3--3-3-3-3-3-3-|----------------|-----------|


     PM--------|      PM--------|      PM--------|
  Q  E E E E E E   Q  E E E E E E   Q  E E E E E E   H    H      H.      Q
|----------------|----------------|----------------|-----------|------------|
|----------------|----------------|----------------|-----------|------------|
|----------------|----------------|----------------|-2---------|------------|
|-3--3-3-3-3-3-3-|-5--5-5-5-5-5-5-|-2--2-2-2-2-2-2-|-2----5----|-3-------3--|
|-3--3-3-3-3-3-3-|-5--5-5-5-5-5-5-|-2--2-2-2-2-2-2-|-0----5----|-3-------3--|
|-1--1-1-1-1-1-1-|-3--3-3-3-3-3-3-|-0--0-0-0-0-0-0-|------3----|-1-------1--|


  H    H      W          +W
|-----------|----------|--------|
|-----------|----------|--------|
|-----------|-2--------|-(2)----|
|-4----4----|-2--------|-(2)----|
|-4----4----|-0--------|-(0)----|
|-2----2----|----------|--------|


  H     H       H    H      H    H      H    H      H     H       H    H
|------------|------------|-----------|-----------|------------|------------|
|------------|------------|-----------|-----------|------------|------------|
|------10----|-12----5----|-7---------|-4---------|------10----|-12----5----|
|-7----10----|-12----5----|-7----7----|-4----2----|-7----10----|-12----5----|
|-7-----8----|-10----3----|-5----7----|-2----2----|-7-----8----|-10----3----|
|-5----------|------------|------5----|------0----|-5----------|------------|


  H    H      H    E E E E   E E E E  E  E  E  E    E  E  E  E E E E E
|-----------|--------------|---------------------|---------------------|
|-----------|--------------|---------------------|---------------------|
|-7---------|-9------------|---------10-10-10-10-|-12-12-12-12-5-5-5-5-|
|-7----7----|-9----7-7-7-7-|-7-7-7-7-10-10-10-10-|-12-12-12-12-5-5-5-5-|
|-5----7----|-7----7-7-7-7-|-7-7-7-7--8--8--8--8-|-10-10-10-10-3-3-3-3-|
|------5----|------5-5-5-5-|-5-5-5-5-------------|---------------------|


  E E E E E E E E   E E E E E E E E
|-----------------|-----------------|
|-----------------|-----------------|
|-7-7-7-7---------|-4-4-4-4---------|
|-7-7-7-7-7-7-7-7-|-4-4-4-4-2-2-2-2-|
|-5-5-5-5-7-7-7-7-|-2-2-2-2-2-2-2-2-|
|---------5-5-5-5-|---------0-0-0-0-|


  E E E E  E  E  E  E    E  E  E  E E E E E
|---------------------|---------------------|
|---------------------|---------------------|
|---------10-10-10-10-|-12-12-12-12-5-5-5-5-|
|-7-7-7-7-10-10-10-10-|-12-12-12-12-5-5-5-5-|
|-7-7-7-7--8--8--8--8-|-10-10-10-10-3-3-3-3-|
|-5-5-5-5-------------|---------------------|


  E E E E E E E E   E E E E H
|-----------------|--------------|
|-----------------|--------------|
|-7-7-7-7---------|-9-9-9-9------|
|-7-7-7-7-7-7-7-7-|-9-9-9-9-7----|
|-5-5-5-5-7-7-7-7-|-7-7-7-7-7----|
|---------5-5-5-5-|---------5----|


 2/4
  W
|------|
|------|
|------|
|------|
|------|
|------|


 4/4
  Wx22
|---------|
|---------|
|---------|
|---------|
|---------|
|---------|


  E E E E  E  E  E  E    E  E  E  E E E E E
|---------------------|---------------------|
|---------------------|---------------------|
|---------10-10-10-10-|-12-12-12-12-5-5-5-5-|
|-7-7-7-7-10-10-10-10-|-12-12-12-12-5-5-5-5-|
|-7-7-7-7--8--8--8--8-|-10-10-10-10-3-3-3-3-|
|-5-5-5-5-------------|---------------------|


  E E E E E E E E   E E E E E E E E   E E E E  E  E  E  E
|-----------------|-----------------|---------------------|
|-----------------|-----------------|---------------------|
|-7-7-7-7---------|-4-4-4-4---------|---------10-10-10-10-|
|-7-7-7-7-7-7-7-7-|-4-4-4-4-2-2-2-2-|-7-7-7-7-10-10-10-10-|
|-5-5-5-5-7-7-7-7-|-2-2-2-2-2-2-2-2-|-7-7-7-7--8--8--8--8-|
|---------5-5-5-5-|---------0-0-0-0-|-5-5-5-5-------------|


   E  E  E  E E E E E   E E E E E E E E
|---------------------|-----------------|
|---------------------|-----------------|
|-12-12-12-12-5-5-5-5-|-7-7-7-7---------|
|-12-12-12-12-5-5-5-5-|-7-7-7-7-7-7-7-7-|
|-10-10-10-10-3-3-3-3-|-5-5-5-5-7-7-7-7-|
|---------------------|---------5-5-5-5-|


  E E E E E E E E   E E E E E E E E   E E E E E E E E
|-----------------|-----------------|-----------------|
|-----------------|-----------------|-----------------|
|-9-9-9-9---------|-7-7-7-7---------|-9-9-9-9---------|
|-9-9-9-9-7-7-7-7-|-7-7-7-7-7-7-7-7-|-9-9-9-9-7-7-7-7-|
|-7-7-7-7-7-7-7-7-|-5-5-5-5-7-7-7-7-|-7-7-7-7-7-7-7-7-|
|---------5-5-5-5-|---------5-5-5-5-|---------5-5-5-5-|


  W          W          W          W
|----------|----------|----------|------|
|----------|----------|----------|------|
|-7--------|----------|-9--------|-9----|
|-7--------|-7--------|-9--------|-9----|
|-5--------|-7--------|-7--------|-7----|
|----------|-5--------|----------|------|


   |--3--|  |--3--|                  |--3--|  |--3--|
   Q  Q  Q  Q  Q  Q    H     H       Q  Q  Q  Q  Q  Q    H     H
|-------------------|-------------|-------------------|-------------|
|-14-14-14-14-15-17-|-------------|-------------------|-------------|
|-------------------|-16----------|-14-14-14-14-16-18-|-13----------|
|-------------------|-------14----|-------------------|-------11----|
|-------------------|-------------|-------------------|-------------|
|-------------------|-------------|-------------------|-------------|


             |--3--|
    Q.    E  Q  Q  Q
|--------------------|
|--------------------|
|--------------------|
|-/12----12-12-14-16-|
|--------------------|
|--------------------|


                                                     |--3--|  |--3--|
   S  S  S  S  S  S  S  S  S  S  S  S  S  S  S  S    Q  Q  Q  Q  Q  Q
|-------------------------------------------------|-17-17-17-17-16-17--|
|-------------------------14-14-14-14-17-17-17-17-|--------------------|
|-14-14-14-14-16-16-16-16-------------------------|--------------------|
|-------------------------------------------------|--------------------|
|-------------------------------------------------|--------------------|
|-------------------------------------------------|--------------------|


            |--3--|    |--3--|  |--3--|
   Q.    E  Q  Q  Q    Q  Q  Q  Q  Q  Q
|-19----19-19-17-16-|-------------------|
|-------------------|-14-14-14-14-15-17-|
|-------------------|-------------------|
|-------------------|-------------------|
|-------------------|-------------------|
|-------------------|-------------------|


                 |--3--|  |--3--|
   H     H       Q  Q  Q  Q  Q  Q    H     H
|-------------|-------------------|-------------|
|-------------|-------------------|-------------|
|-16----------|-14-14-14-14-16-18-|-13----------|
|-------14----|-------------------|-------11----|
|-------------|-------------------|-------------|
|-------------|-------------------|-------------|


             |--3--|
    Q.    E  Q  Q  Q
|--------------------|
|--------------------|
|--------------------|
|-/12----12-12-14-16-|
|--------------------|
|--------------------|


                                                     |--3--|  |--3--|
   S  S  S  S  S  S  S  S  S  S  S  S  S  S  S  S    Q  Q  Q  Q  Q  Q
|-------------------------------------------------|-17-17-17-17-16-17--|
|-------------------------14-14-14-14-17-17-17-17-|--------------------|
|-14-14-14-14-16-16-16-16-------------------------|--------------------|
|-------------------------------------------------|--------------------|
|-------------------------------------------------|--------------------|
|-------------------------------------------------|--------------------|


            |--3--|
   Q.    E  Q  Q  Q    W           +W
|-19----19-19-17-16-|-17--------|-(17)----*|
|-------------------|-----------|---------*|
|-------------------|-----------|---------*|
|-------------------|-----------|---------*|
|-------------------|-----------|---------*|
|-------------------|-----------|---------*|

Irregular groupings are notated above the duration line
Duration letters with no fret number below them represent rests.  Multi-
bar rests are notated in the form Wxn, where n is the number of bars to rest for.
Добавлено: 01.08.2013
Вам также может быть интересно:
Другие материалы по этой песне:

Страница создана 11.06.2013
http://primanota.ru/403-forbiddena/northern-lights-chords.htm
Привет, Гость.
Предлагаем пройти революционный курс по гитаре.
Подарок от PrimaNota.Ru, забирай!