PrimaNota.ru - самый крупный в мире бесплатный архив песенных текстов, аккордов, табулатур и нот


40 Below Summer - Daywalker - таба, видео

Регистрация Запомнить меня
Войти через:  Facebook Google Twitter Vk Yandex Mail.ru

40 Below Summer - Daywalker - таба, видео

Печатать
Просмотров: 82
40 Below Summer: Daywalker

Transcribed by: mysticguitar77

Facebook: https://www.facebook.com/MysticGuitar77
YouTube Channel: https://www.youtube.com/user/MysticGuitar77

Date last modified: June 14, 2015

Tuning: Drop A# (A#,F,A#,D#,G,C)

Intro
 C|-----------------------------------------------------|
 G|-----------------------------------------------------|
D#|-----------------------------------------------------|
A#|-------------------------------------------------4-4-|
 F|-5-3-0-------2-1-0-------3-2-0-------2-1-0-------2-2-|
A#|-------5-3-0-------3-2-0-------3-2-0-------3-2-0-1-1-|

Riff 1   "Come down, to the depths of abnormality..."
 C|-----------------------------------------------------|
 G|-----------------------------------------------------|
D#|-----------------------------------------------------|
A#|-------------------------------------------------4-4-|
 F|-5-3-0-------2-1-0-------3-2-0-------2-1-0-------2-2-|
A#|-------5-3-0-------3-2-0-------3-2-0-------3-2-0-1-1-|

 C|----------------------------------------------------|
 G|----------------------------------------------------|
D#|----------------------------------------------------|
A#|----------------------------------------------------|
 F|-5-3-0-------2-1-0-------3-2-0-------2-1-0----------|
A#|-------5-3-0-------3-2-0-------3-2-0-------3-0-2-3~-|

Play Riff 1 x2   "Faced with poverty..."

Riff 2   "Taking back the life you had..."
 C|-----------------------------------------------------|
 G|-----------------------------------------------------|
D#|-----------------------------------------------------|
A#|-5-3-0-------2-1-0-------3-2-0-------2-1-0-------4-4-|
 F|-5-3-0-5-3-0-2-1-0-3-2-0-3-2-0-3-2-0-2-1-0-3-2-0-2-2-|
A#|-------5-3-0-------3-2-0-------3-2-0-------3-2-0-1-1-|
    * * * * * * * * * * * * * * * * * * * * * * * *

 C|---------------------------------------------------|
 G|---------------------------------------------------|
D#|---------------------------------------------------|
A#|-5-3-0-------2-1-0-------3-2-0-------2-1-0---------|
 F|-5-3-0-5-3-0-2-1-0-3-2-0-3-2-0-3-2-0-2-1-0-3-0-2-3-|
A#|-------5-3-0-------3-2-0-------3-2-0-------3-0-2-3-|
    * * * * * * * * * * * * * * * * * * * * * * * *

Play Riff 2 x2

Riff 3   "It's all so f***ing simple..."
 C|--------------------------------------------------|
 G|--------------------------------------------------|
D#|-7b---------7b---------7b-------------------------|
A#|-x----------x----------x--------------------------|
 F|-5b-0-3-0-3-5b-0-3-0-3-5b-0-3-0-3--3-0-3--5-3-2-0-|
A#|----0-3-0-3----0-3-0-3----0-3-0-3--3-0-3--5-3-2-0-|
       * * * *    * * * *    * * * *  * * *  * * * *

 C|--------------------------------------------------|
 G|--------------------------------------------------|
D#|-6b---------6b---------6b-------------------------|
A#|-x----------x----------x--------------------------|
 F|-4b-0-3-0-3-4b-0-3-0-3-4b-0-3-0-3--3-0-3--5-3-2-0-|
A#|----0-3-0-3----0-3-0-3----0-3-0-3--3-0-3--5-3-2-0-|
       * * * *    * * * *    * * * *  * * *  * * * *

 C|-----------------------------------------------------|
 G|-----------------------------------------------------|
D#|-10b---------10b---------10b-------------------------|
A#|-x-----------x-----------x---------------------------|
 F|-8b--0-3-0-3-8b--0-3-0-3-8b--0-3-0-3--3-0-3--5-3-2-0-|
A#|-----0-3-0-3-----0-3-0-3-----0-3-0-3--3-0-3--5-3-2-0-|
        * * * *     * * * *     * * * *  * * *  * * * *

 C|--------------------------------------------------|
 G|--------------------------------------------------|
D#|-9b---------9b---------9b-------------------------|
A#|-x----------x----------x--------------------------|
 F|-7b-0-3-0-3-7b-0-3-0-3-7b-0-3-0-3--3-0-3--5-3-2-0-|
A#|----0-3-0-3----0-3-0-3----0-3-0-3--3-0-3--5-3-2-0-|
       * * * *    * * * *    * * * *  * * *  * * * *

Riff 4   "Trying to save yourself means..."
 C|------------------------------------------------|
 G|------------------------------------------------|
D#|-------------------11--11--11-11---------7--7-7-|
A#|---------------9~--9---9---9--9------5~--5--5-5-| x2
 F|-----3h5-3/7~------7---7---7--7--3~------3--3-3-|
A#|-3h5--------------------------------------------|

 C|---------------------------------------------------------------------------------------------------|
 G|---------------------------------------------------------------------------------------------------|
D#|---------11-11-----11-11-----11-11-----7-7-----9-9-----9-9-----9-9-----9-9-----9-9-----------7~----|
A#|---------9--9------9--9------9--9------7-7-----7-7-----7-7-----9-9-----9-9-----9-9--------5~-------|
 F|-----3h5-7--7--7-7-7--7--7-7-7--7--7-7-5-5-5-5-5-5-5-5-5-5-5-5-7-7-----7-7-----7-7-----3~--------\-|
A#|-3h5-----------------------------------------------------------7-7-7-7-7-7-7-7-7-7-7-7-----------\-|
                  * *       * *       * *     * *     * *     * *     * *     * *     * *

Play Riff 1 x2   "Break away and take hold of all your property..."
Play Riff 2 x2   "Falsified, with no return..."
Play Riff 4 x1   "Trying to save yourself means..."
Play Riff 3 x1   "It's all too f***ing easy..." (add a rest about halfway through this time)

Fill 1
 C|------------------------|
 G|-5~---------------------|
D#|-4~---------------------|
A#|-2~---------------------|
 F|-2~---------------------|
A#|-2~---------------------|

Riff 5 (clean w/ slight delay and reverb)   "Because it's so sad..."
 C|---------------15--15-14--14-14-14-14-14-----------------------------------------|
 G|-17--17----------------------------------15--15--------19--19-17--17-17-17-17-17-|
D#|--------16--16----------------------------------16--16---------------------------|
A#|---------------------------------------------------------------------------------|
 F|---------------------------------------------------------------------------------|
A#|---------------------------------------------------------------------------------|

Play Riff 5 a bunch of times (I'm not counting this time :D)

Riff 6 
 C|-0-12-0-15-0-12-0-10-0-12-0-10-0-7-0-5-|
 G|---------------------------------------|
D#|---------------------------------------|
A#|---------------------------------------| lead guitar plays this a few times as it leads into the little lead
 F|---------------------------------------|
A#|---------------------------------------|

Riff 7   "Cos it's the pressure..."
 C|-------------------------------------------------|
 G|-------------------------------------------------|
D#|-------------------------------------------------|
A#|-------------------------------------------------| x2
 F|-------------------------------------------------|
A#|-222-222-444-444-444-444-000-000-222-222-222-222-|
    *** *** *** *** *** *** *** *** *** *** *** ***

 C|-------------------------------------------------|
 G|-------------------------------------------------|
D#|-------------------------------------------------|
A#|-------------------------------------------------| x2
 F|-----222---------------------000-----------------|
A#|-222-----555-444-444-444-000-----444-222-222-222-|
    *** *** *** *** *** *** *** *** *** *** *** ***

Riff 8
 C|---------------------------------------------------|
 G|---------------------------------------------------|
D#|-9-4----------2--------9-4----------2--------------|
A#|-9-4-5-4----0-2-4-2----9-4-5-4----0-2-4-2--x-x-x-x-|
 F|-7-2-5-4----0-0-4-2----7-2-5-4----0-0-4-2--x-x-x-x-|
A#|-----5-4----0---4-2--------5-4----0---4-2--x-x-x-x-|

 C|-------------------------------------------------------|
 G|-------------------------------------------------------|
D#|---4--------------2---------------4--------------2-----|
A#|-2-4-5-4--------0-2-4-2---------2-4-5-4--------0-2---2-|
 F|-2-2-5-4-4-4--4-0-0-4-2-2-2-2-2-2-2-5-4-4-4--4-0-0-0-2-|
A#|-2---5-4-4-4--4-0---4-2-2-2-2-2-2---5-4-4-4--4-0---0-2-|
            * *  *         * * * *         * *  *

Play Riff 4 x1   "Trying to save yourself means..."
Play Riff 1 x2   "You will arise with the sun!"

Enjoy!!
Добавлено: 21.11.2015
Другие материалы по этой песне:
  • Аккорды и текст

Страница создана 21.11.2015
http://primanota.ru/40-below-summer/daywalker-chords.htm
Привет, Гость.
Предлагаем пройти революционный курс по гитаре.
Подарок от PrimaNota.Ru, забирай!